  0
SECTION
  2
HEADER
  9
$ACADVER
  1
AC1018
  9
$ACADMAINTVER
 70
   104
  9
$DWGCODEPAGE
  3
ANSI_1252
  9
$LASTSAVEDBY
  1
TFassnacht
  9
$INSBASE
 10
0.0
 20
0.0
 30
0.0
  9
$EXTMIN
 10
-0.0000249764998443
 20
-0.000052871517255
 30
0.0
  9
$EXTMAX
 10
198.0015748636215
 20
126.0009652085864
 30
0.0
  9
$LIMMIN
 10
0.0
 20
0.0
  9
$LIMMAX
 10
17.0
 20
11.0
  9
$ORTHOMODE
 70
     1
  9
$REGENMODE
 70
     1
  9
$FILLMODE
 70
     1
  9
$QTEXTMODE
 70
     0
  9
$MIRRTEXT
 70
     0
  9
$LTSCALE
 40
1.0
  9
$ATTMODE
 70
     2
  9
$TEXTSIZE
 40
0.085
  9
$TRACEWID
 40
0.05
  9
$TEXTSTYLE
  7
STANDARD
  9
$CLAYER
  8
0
  9
$CELTYPE
  6
BYLAYER
  9
$CECOLOR
 62
   256
  9
$CELTSCALE
 40
1.0
  9
$DISPSILH
 70
     0
  9
$DIMSCALE
 40
1.0
  9
$DIMASZ
 40
0.1328125
  9
$DIMEXO
 40
0.0859375
  9
$DIMDLI
 40
0.171875
  9
$DIMRND
 40
0.0
  9
$DIMDLE
 40
0.0
  9
$DIMEXE
 40
0.0234375
  9
$DIMTP
 40
0.0
  9
$DIMTM
 40
0.0
  9
$DIMTXT
 40
0.109375
  9
$DIMCEN
 40
0.04296875
  9
$DIMTSZ
 40
0.0
  9
$DIMTOL
 70
     0
  9
$DIMLIM
 70
     0
  9
$DIMTIH
 70
     0
  9
$DIMTOH
 70
     0
  9
$DIMSE1
 70
     0
  9
$DIMSE2
 70
     0
  9
$DIMTAD
 70
     1
  9
$DIMZIN
 70
     0
  9
$DIMBLK
  1

  9
$DIMASO
 70
     1
  9
$DIMSHO
 70
     1
  9
$DIMPOST
  1

  9
$DIMAPOST
  1

  9
$DIMALT
 70
     0
  9
$DIMALTD
 70
     2
  9
$DIMALTF
 40
25.4
  9
$DIMLFAC
 40
48.0000768
  9
$DIMTOFL
 70
     0
  9
$DIMTVP
 40
0.0
  9
$DIMTIX
 70
     0
  9
$DIMSOXD
 70
     0
  9
$DIMSAH
 70
     0
  9
$DIMBLK1
  1

  9
$DIMBLK2
  1

  9
$DIMSTYLE
  2
Q_SCALE_FULLDIM
  9
$DIMCLRD
 70
     4
  9
$DIMCLRE
 70
     4
  9
$DIMCLRT
 70
     4
  9
$DIMTFAC
 40
1.0
  9
$DIMGAP
 40
0.04296875
  9
$DIMJUST
 70
     0
  9
$DIMSD1
 70
     0
  9
$DIMSD2
 70
     0
  9
$DIMTOLJ
 70
     1
  9
$DIMTZIN
 70
     0
  9
$DIMALTZ
 70
     0
  9
$DIMALTTZ
 70
     0
  9
$DIMUPT
 70
     0
  9
$DIMDEC
 70
     4
  9
$DIMTDEC
 70
     4
  9
$DIMALTU
 70
     2
  9
$DIMALTTD
 70
     2
  9
$DIMTXSTY
  7
STANDARD
  9
$DIMAUNIT
 70
     0
  9
$DIMADEC
 70
     0
  9
$DIMALTRND
 40
0.0
  9
$DIMAZIN
 70
     0
  9
$DIMDSEP
 70
    46
  9
$DIMATFIT
 70
     3
  9
$DIMFRAC
 70
     0
  9
$DIMLDRBLK
  1

  9
$DIMLUNIT
 70
     4
  9
$DIMLWD
 70
    -2
  9
$DIMLWE
 70
    -2
  9
$DIMTMOVE
 70
     0
  9
$LUNITS
 70
     5
  9
$LUPREC
 70
     8
  9
$SKETCHINC
 40
0.1
  9
$FILLETRAD
 40
0.0
  9
$AUNITS
 70
     0
  9
$AUPREC
 70
     0
  9
$MENU
  1
C:\ACADR13\WIN\SUPPORT\REPUBLIC
  9
$ELEVATION
 40
0.0
  9
$PELEVATION
 40
0.0
  9
$THICKNESS
 40
0.0
  9
$LIMCHECK
 70
     0
  9
$CHAMFERA
 40
0.0
  9
$CHAMFERB
 40
0.0
  9
$CHAMFERC
 40
0.0
  9
$CHAMFERD
 40
0.0
  9
$SKPOLY
 70
     0
  9
$TDCREATE
 40
2450834.604276620
  9
$TDUCREATE
 40
2450834.770943287
  9
$TDUPDATE
 40
2460202.419206134
  9
$TDUUPDATE
 40
2460202.585872801
  9
$TDINDWG
 40
3.9096418866
  9
$TDUSRTIMER
 40
3.9096418866
  9
$USRTIMER
 70
     1
  9
$ANGBASE
 50
0.0
  9
$ANGDIR
 70
     0
  9
$PDMODE
 70
     0
  9
$PDSIZE
 40
0.0
  9
$PLINEWID
 40
0.0
  9
$SPLFRAME
 70
     0
  9
$SPLINETYPE
 70
     6
  9
$SPLINESEGS
 70
     8
  9
$HANDSEED
  5
20CC5
  9
$SURFTAB1
 70
     6
  9
$SURFTAB2
 70
     6
  9
$SURFTYPE
 70
     6
  9
$SURFU
 70
     6
  9
$SURFV
 70
     6
  9
$UCSBASE
  2

  9
$UCSNAME
  2

  9
$UCSORG
 10
0.0
 20
0.0
 30
0.0
  9
$UCSXDIR
 10
1.0
 20
0.0
 30
0.0
  9
$UCSYDIR
 10
0.0
 20
1.0
 30
0.0
  9
$UCSORTHOREF
  2

  9
$UCSORTHOVIEW
 70
     0
  9
$UCSORGTOP
 10
0.0
 20
0.0
 30
0.0
  9
$UCSORGBOTTOM
 10
0.0
 20
0.0
 30
0.0
  9
$UCSORGLEFT
 10
0.0
 20
0.0
 30
0.0
  9
$UCSORGRIGHT
 10
0.0
 20
0.0
 30
0.0
  9
$UCSORGFRONT
 10
0.0
 20
0.0
 30
0.0
  9
$UCSORGBACK
 10
0.0
 20
0.0
 30
0.0
  9
$PUCSBASE
  2

  9
$PUCSNAME
  2

  9
$PUCSORG
 10
0.0
 20
0.0
 30
0.0
  9
$PUCSXDIR
 10
1.0
 20
0.0
 30
0.0
  9
$PUCSYDIR
 10
0.0
 20
1.0
 30
0.0
  9
$PUCSORTHOREF
  2

  9
$PUCSORTHOVIEW
 70
     0
  9
$PUCSORGTOP
 10
0.0
 20
0.0
 30
0.0
  9
$PUCSORGBOTTOM
 10
0.0
 20
0.0
 30
0.0
  9
$PUCSORGLEFT
 10
0.0
 20
0.0
 30
0.0
  9
$PUCSORGRIGHT
 10
0.0
 20
0.0
 30
0.0
  9
$PUCSORGFRONT
 10
0.0
 20
0.0
 30
0.0
  9
$PUCSORGBACK
 10
0.0
 20
0.0
 30
0.0
  9
$USERI1
 70
     0
  9
$USERI2
 70
     0
  9
$USERI3
 70
     0
  9
$USERI4
 70
     0
  9
$USERI5
 70
     0
  9
$USERR1
 40
0.0
  9
$USERR2
 40
0.0
  9
$USERR3
 40
0.0
  9
$USERR4
 40
0.0
  9
$USERR5
 40
0.0
  9
$WORLDVIEW
 70
     1
  9
$SHADEDGE
 70
     3
  9
$SHADEDIF
 70
    70
  9
$TILEMODE
 70
     1
  9
$MAXACTVP
 70
    16
  9
$PINSBASE
 10
0.0
 20
0.0
 30
0.0
  9
$PLIMCHECK
 70
     0
  9
$PEXTMIN
 10
1.000000000000000E+20
 20
1.000000000000000E+20
 30
1.000000000000000E+20
  9
$PEXTMAX
 10
-1.000000000000000E+20
 20
-1.000000000000000E+20
 30
-1.000000000000000E+20
  9
$PLIMMIN
 10
0.0
 20
0.0
  9
$PLIMMAX
 10
12.0
 20
9.0
  9
$UNITMODE
 70
     0
  9
$VISRETAIN
 70
     0
  9
$PLINEGEN
 70
     0
  9
$PSLTSCALE
 70
     1
  9
$TREEDEPTH
 70
  3020
  9
$CMLSTYLE
  2
STANDARD
  9
$CMLJUST
 70
     0
  9
$CMLSCALE
 40
1.0
  9
$PROXYGRAPHICS
 70
     1
  9
$MEASUREMENT
 70
     0
  9
$CELWEIGHT
370
    -1
  9
$ENDCAPS
280
     0
  9
$JOINSTYLE
280
     0
  9
$LWDISPLAY
290
     0
  9
$INSUNITS
 70
     0
  9
$HYPERLINKBASE
  1

  9
$STYLESHEET
  1
monochrome.ctb
  9
$XEDIT
290
     1
  9
$CEPSNTYPE
380
     0
  9
$PSTYLEMODE
290
     1
  9
$FINGERPRINTGUID
  2
{8006B5C0-AD62-11D3-96B1-005004D188FB}
  9
$VERSIONGUID
  2
{C228D87B-3DE8-4268-8A39-132683A3313F}
  9
$EXTNAMES
290
     1
  9
$PSVPSCALE
 40
0.0
  9
$OLESTARTUP
290
     0
  9
$SORTENTS
280
    96
  9
$INDEXCTL
280
     0
  9
$HIDETEXT
280
     0
  9
$XCLIPFRAME
290
     0
  9
$HALOGAP
280
     0
  9
$OBSCOLOR
 70
   257
  9
$OBSLTYPE
280
     0
  9
$INTERSECTIONDISPLAY
280
     0
  9
$INTERSECTIONCOLOR
 70
   257
  9
$DIMASSOC
280
     1
  9
$PROJECTNAME
  1

  0
ENDSEC
  0
SECTION
  2
CLASSES
  0
CLASS
  1
ACDBDICTIONARYWDFLT
  2
AcDbDictionaryWithDefault
  3
ObjectDBX Classes
 90
        0
 91
        1
280
     0
281
     0
  0
CLASS
  1
PLOTSETTINGS
  2
AcDbPlotSettings
  3
ObjectDBX Classes
 90
        0
 91
        2
280
     0
281
     0
  0
CLASS
  1
IMAGEDEF
  2
AcDbRasterImageDef
  3
ISM
 90
        0
 91
        1
280
     0
281
     0
  0
CLASS
  1
DICTIONARYVAR
  2
AcDbDictionaryVar
  3
ObjectDBX Classes
 90
        0
 91
        6
280
     0
281
     0
  0
CLASS
  1
MATERIAL
  2
AcDbMaterial
  3
ObjectDBX Classes
 90
     1153
 91
        3
280
     0
281
     0
  0
CLASS
  1
VISUALSTYLE
  2
AcDbVisualStyle
  3
ObjectDBX Classes
 90
     4095
 91
       26
280
     0
281
     0
  0
CLASS
  1
TABLESTYLE
  2
AcDbTableStyle
  3
ObjectDBX Classes
 90
     4095
 91
        1
280
     0
281
     0
  0
CLASS
  1
SORTENTSTABLE
  2
AcDbSortentsTable
  3
ObjectDBX Classes
 90
        0
 91
        3
280
     0
281
     0
  0
CLASS
  1
SCALE
  2
AcDbScale
  3
ObjectDBX Classes
 90
     1153
 91
       33
280
     0
281
     0
  0
CLASS
  1
MLEADERSTYLE
  2
AcDbMLeaderStyle
  3
ACDB_MLEADERSTYLE_CLASS
 90
     4095
 91
        1
280
     0
281
     0
  0
CLASS
  1
CELLSTYLEMAP
  2
AcDbCellStyleMap
  3
ObjectDBX Classes
 90
     1152
 91
        2
280
     0
281
     0
  0
CLASS
  1
AEC_REFEDIT_STATUS_TRACKER
  2
AecDbRefEditStatusTracker
  3
AecArchBase70|Product Desc: Autodesk Architectural Desktop 2007 |Company: Autodesk,Inc. |WEB Address: www.autodesk.com
 90
      129
 91
        0
280
     0
281
     0
  0
CLASS
  1
NPOCOLLECTION
  2
AcDbImpNonPersistentObjectsCollection
  3
ObjectDBX Classes
 90
     1153
 91
        0
280
     0
281
     0
  0
CLASS
  1
ACDBSECTIONVIEWSTYLE
  2
AcDbSectionViewStyle
  3
ObjectDBX Classes
 90
     1025
 91
        1
280
     0
281
     0
  0
CLASS
  1
ACDBDETAILVIEWSTYLE
  2
AcDbDetailViewStyle
  3
ObjectDBX Classes
 90
     1025
 91
        1
280
     0
281
     0
  0
CLASS
  1
LSINTERNALCOMPONENT
  2
AcDbLSInternalComponent
  3
AcDgnLS
 90
        0
 91
       76
280
     0
281
     0
  0
ENDSEC
  0
SECTION
  2
TABLES
  0
TABLE
  2
VPORT
  5
8
102
{ACAD_XDICTIONARY
360
1857C
102
}
330
0
100
AcDbSymbolTable
 70
     1
  0
VPORT
  5
18345
330
8
100
AcDbSymbolTableRecord
100
AcDbViewportTableRecord
  2
*Active
 70
     0
 10
0.0
 20
0.0
 11
1.0
 21
1.0
 12
99.00079134765043
 22
63.00242036549099
 13
0.0
 23
0.0
 14
1.0
 24
1.0
 15
0.0
 25
0.0
 16
0.0
 26
0.0
 36
1.0
 17
0.0
 27
0.0
 37
0.0
 40
127.2224822188921
 41
2.13301282051282
 42
50.0
 43
0.0
 44
0.0
 50
0.0
 51
0.0
 71
     0
 72
   100
 73
     1
 74
     0
 75
     0
 76
     0
 77
     0
 78
     0
281
     0
 65
     1
110
0.0
120
0.0
130
0.0
111
1.0
121
0.0
131
0.0
112
0.0
122
1.0
132
0.0
 79
     0
146
0.0
1001
ACAD_NAV_VCDISPLAY
1070
     3
  0
ENDTAB
  0
TABLE
  2
LTYPE
  5
5
330
0
100
AcDbSymbolTable
 70
     4
  0
LTYPE
  5
14
330
5
100
AcDbSymbolTableRecord
100
AcDbLinetypeTableRecord
  2
BYBLOCK
 70
     0
  3

 72
    65
 73
     0
 40
0.0
  0
LTYPE
  5
15
330
5
100
AcDbSymbolTableRecord
100
AcDbLinetypeTableRecord
  2
BYLAYER
 70
     0
  3

 72
    65
 73
     0
 40
0.0
  0
LTYPE
  5
16
330
5
100
AcDbSymbolTableRecord
100
AcDbLinetypeTableRecord
  2
CONTINUOUS
 70
     0
  3
Solid line
 72
    65
 73
     0
 40
0.0
  0
LTYPE
  5
19547
330
5
100
AcDbSymbolTableRecord
100
AcDbLinetypeTableRecord
  2
PHANTOM2
 70
     0
  3
Phantom (.5x) ___ _ _ ___ _ _ ___ _ _ ___ _ _
 72
    65
 73
     6
 40
1.25
 49
0.625
 74
     0
 49
-0.125
 74
     0
 49
0.125
 74
     0
 49
-0.125
 74
     0
 49
0.125
 74
     0
 49
-0.125
 74
     0
  0
LTYPE
  5
1E739
330
5
100
AcDbSymbolTableRecord
100
AcDbLinetypeTableRecord
  2
DASHED2
 70
     0
  3
Dashed (.5x) _ _ _ _ _ _ _ _ _ _ _ _ _ _ _ _ _
 72
    65
 73
     2
 40
0.375
 49
0.25
 74
     0
 49
-0.125
 74
     0
  0
LTYPE
  5
1E73A
330
5
100
AcDbSymbolTableRecord
100
AcDbLinetypeTableRecord
  2
HS
 70
     0
  3
HEAVY_SOLID
 72
    65
 73
     0
 40
0.0
  0
ENDTAB
  0
TABLE
  2
LAYER
  5
2
102
{ACAD_XDICTIONARY
360
18C2C
102
}
330
0
100
AcDbSymbolTable
 70
    19
  0
LAYER
  5
F
102
{ACAD_XDICTIONARY
360
18BD0
102
}
330
2
100
AcDbSymbolTableRecord
100
AcDbLayerTableRecord
  2
0
 70
     0
 62
     7
  6
CONTINUOUS
370
    -3
390
5D95
  0
LAYER
  5
36
102
{ACAD_XDICTIONARY
360
18BD2
102
}
330
2
100
AcDbSymbolTableRecord
100
AcDbLayerTableRecord
  2
TEXT
 70
     0
 62
     2
  6
CONTINUOUS
370
    -3
390
5D95
  0
LAYER
  5
14178
102
{ACAD_XDICTIONARY
360
18BD6
102
}
330
2
100
AcDbSymbolTableRecord
100
AcDbLayerTableRecord
  2
locker
 70
     0
 62
     1
  6
CONTINUOUS
370
    -3
390
5D95
  0
LAYER
  5
19CB4
330
2
100
AcDbSymbolTableRecord
100
AcDbLayerTableRecord
  2
Defpoints
 70
     0
 62
     7
  6
CONTINUOUS
290
     0
370
    -3
390
5D95
  0
LAYER
  5
1A808
102
{ACAD_XDICTIONARY
360
1A809
102
}
330
2
100
AcDbSymbolTableRecord
100
AcDbLayerTableRecord
  2
border1
 70
     0
 62
     1
  6
CONTINUOUS
370
    -3
390
5D95
  0
LAYER
  5
1A80A
102
{ACAD_XDICTIONARY
360
1A80B
102
}
330
2
100
AcDbSymbolTableRecord
100
AcDbLayerTableRecord
  2
dim
 70
     0
 62
     4
  6
CONTINUOUS
370
    -3
390
5D95
  0
LAYER
  5
1A80C
102
{ACAD_XDICTIONARY
360
1A80D
102
}
330
2
100
AcDbSymbolTableRecord
100
AcDbLayerTableRecord
  2
wall
 70
     0
 62
    42
  6
CONTINUOUS
370
    -3
390
5D95
  0
LAYER
  5
1A80E
102
{ACAD_XDICTIONARY
360
1A80F
102
}
330
2
100
AcDbSymbolTableRecord
100
AcDbLayerTableRecord
  2
diamonds
 70
     0
 62
     6
  6
CONTINUOUS
370
    15
390
5D95
  0
LAYER
  5
1A812
330
2
100
AcDbSymbolTableRecord
100
AcDbLayerTableRecord
  2
elevation text
 70
     0
 62
     7
  6
CONTINUOUS
370
    -3
390
5D95
1001
AcAecLayerStandard
1000

1000

1001
AcCmTransparency
1071
        0
  0
LAYER
  5
1E73B
102
{ACAD_XDICTIONARY
360
1E73C
102
}
330
2
100
AcDbSymbolTableRecord
100
AcDbLayerTableRecord
  2
frame
 70
     0
 62
     1
  6
CONTINUOUS
370
    -3
390
5D95
  0
LAYER
  5
1E73D
330
2
100
AcDbSymbolTableRecord
100
AcDbLayerTableRecord
  2
top
 70
     0
 62
     6
  6
CONTINUOUS
370
    35
390
5D95
  0
LAYER
  5
1E73E
330
2
100
AcDbSymbolTableRecord
100
AcDbLayerTableRecord
  2
door
 70
     0
 62
     3
  6
CONTINUOUS
370
    -3
390
5D95
  0
LAYER
  5
1E73F
102
{ACAD_XDICTIONARY
360
1E740
102
}
330
2
100
AcDbSymbolTableRecord
100
AcDbLayerTableRecord
  2
ELEVATION
 70
     0
 62
     3
  6
CONTINUOUS
370
    -3
390
5D95
  0
LAYER
  5
1E741
102
{ACAD_XDICTIONARY
360
1E742
102
}
330
2
100
AcDbSymbolTableRecord
100
AcDbLayerTableRecord
  2
ELEV HIDDEN
 70
     0
 62
     1
  6
DASHED2
370
    -3
390
5D95
  0
LAYER
  5
1E743
330
2
100
AcDbSymbolTableRecord
100
AcDbLayerTableRecord
  2
HANDLE
 70
     0
 62
     5
  6
CONTINUOUS
370
    -3
390
5D95
  0
LAYER
  5
1E744
102
{ACAD_XDICTIONARY
360
1E745
102
}
330
2
100
AcDbSymbolTableRecord
100
AcDbLayerTableRecord
  2
OBJECT
 70
     0
 62
     3
  6
CONTINUOUS
370
    -3
390
5D95
  0
LAYER
  5
1E746
102
{ACAD_XDICTIONARY
360
1E747
102
}
330
2
100
AcDbSymbolTableRecord
100
AcDbLayerTableRecord
  2
0 OBJECT BORDER
 70
     0
 62
     1
  6
CONTINUOUS
370
    -3
390
5D95
  0
LAYER
  5
1E748
102
{ACAD_XDICTIONARY
360
1E749
102
}
330
2
100
AcDbSymbolTableRecord
100
AcDbLayerTableRecord
  2
0 DIAMONDS
 70
     0
 62
     3
  6
CONTINUOUS
370
    -3
390
5D95
  0
LAYER
  5
1EFB8
102
{ACAD_XDICTIONARY
360
1EFB9
102
}
330
2
100
AcDbSymbolTableRecord
100
AcDbLayerTableRecord
  2
coat rod
 70
     0
 62
     4
  6
CONTINUOUS
370
    -3
390
5D95
  0
ENDTAB
  0
TABLE
  2
STYLE
  5
3
330
0
100
AcDbSymbolTable
 70
     3
  0
STYLE
  5
10
330
3
100
AcDbSymbolTableRecord
100
AcDbTextStyleTableRecord
  2
STANDARD
 70
     0
 40
0.0
 41
1.0
 50
0.0
 71
     0
 42
0.085
  3
txt
  4

  0
STYLE
  5
14154
330
3
100
AcDbSymbolTableRecord
100
AcDbTextStyleTableRecord
  2
ROMANS
 70
     0
 40
0.0
 41
1.0
 50
0.0
 71
     0
 42
0.085
  3
romans
  4

  0
STYLE
  5
1E74A
330
3
100
AcDbSymbolTableRecord
100
AcDbTextStyleTableRecord
  2
ELEVATION
 70
     0
 40
1.5
 41
1.0
 50
0.0
 71
     0
 42
1.5
  3
SIMPLEX.shx
  4

  0
ENDTAB
  0
TABLE
  2
VIEW
  5
6
330
0
100
AcDbSymbolTable
 70
     0
  0
ENDTAB
  0
TABLE
  2
UCS
  5
7
330
0
100
AcDbSymbolTable
 70
     0
  0
ENDTAB
  0
TABLE
  2
APPID
  5
9
330
0
100
AcDbSymbolTable
 70
     9
  0
APPID
  5
11
330
9
100
AcDbSymbolTableRecord
100
AcDbRegAppTableRecord
  2
ACAD
 70
     0
  0
APPID
  5
18543
330
9
100
AcDbSymbolTableRecord
100
AcDbRegAppTableRecord
  2
ACAD_EXEMPT_FROM_CAD_STANDARDS
 70
     0
  0
APPID
  5
1857B
330
9
100
AcDbSymbolTableRecord
100
AcDbRegAppTableRecord
  2
ACAD_PSEXT
 70
     0
  0
APPID
  5
1953B
330
9
100
AcDbSymbolTableRecord
100
AcDbRegAppTableRecord
  2
ACAD_MLEADERVER
 70
     0
  0
APPID
  5
19557
330
9
100
AcDbSymbolTableRecord
100
AcDbRegAppTableRecord
  2
ACAD_NAV_VCDISPLAY
 70
     0
  0
APPID
  5
1A813
330
9
100
AcDbSymbolTableRecord
100
AcDbRegAppTableRecord
  2
AcAecLayerStandard
 70
     0
  0
APPID
  5
1A814
330
9
100
AcDbSymbolTableRecord
100
AcDbRegAppTableRecord
  2
AcCmTransparency
 70
     0
  0
APPID
  5
1E74D
330
9
100
AcDbSymbolTableRecord
100
AcDbRegAppTableRecord
  2
ACAD_DSTYLE_DIMJAG
 70
     0
  0
APPID
  5
1E74E
330
9
100
AcDbSymbolTableRecord
100
AcDbRegAppTableRecord
  2
ACAD_DSTYLE_DIMTALN
 70
     0
  0
ENDTAB
  0
TABLE
  2
DIMSTYLE
  5
A
330
0
100
AcDbSymbolTable
 70
     2
100
AcDbDimStyleTable
 71
     1
340
E4
  0
DIMSTYLE
105
E4
330
A
100
AcDbSymbolTableRecord
100
AcDbDimStyleTableRecord
  2
Q_SCALE_FULLDIM
 70
     0
 41
0.1328125
 42
0.0859375
 43
0.171875
 44
0.0234375
 73
     0
 74
     0
 77
     1
140
0.109375
141
0.04296875
144
48.0000768
147
0.04296875
176
     4
177
     4
178
     4
277
     4
340
10
  0
DIMSTYLE
105
18C2B
330
A
100
AcDbSymbolTableRecord
100
AcDbDimStyleTableRecord
  2
Standard
 70
     0
340
10
  0
ENDTAB
  0
TABLE
  2
BLOCK_RECORD
  5
1
330
0
100
AcDbSymbolTable
 70
     3
  0
BLOCK_RECORD
  5
1A
102
{ACAD_XDICTIONARY
360
183EF
102
}
330
1
100
AcDbSymbolTableRecord
100
AcDbBlockTableRecord
  2
*MODEL_SPACE
340
5D98
  0
BLOCK_RECORD
  5
17
330
1
100
AcDbSymbolTableRecord
100
AcDbBlockTableRecord
  2
*PAPER_SPACE
340
5D99
  0
BLOCK_RECORD
  5
1E707
102
{ACAD_XDICTIONARY
360
1E708
102
}
330
1
100
AcDbSymbolTableRecord
100
AcDbBlockTableRecord
  2
A$C0da8e90c
340
0
102
{BLKREFS
331
20A28
331
20A9D
102
}
1001
ACAD
1000
DesignCenter Data
1002
{
1070
     1
1070
     1
1002
}
  0
BLOCK_RECORD
  5
1E72C
102
{ACAD_XDICTIONARY
360
1E72D
102
}
330
1
100
AcDbSymbolTableRecord
100
AcDbBlockTableRecord
  2
A$C6895fdcc
340
0
102
{BLKREFS
331
20A29
331
20A2A
331
20A2B
331
20A2C
331
20A2D
331
20A2E
331
20A2F
331
20A30
331
20A31
331
20A32
331
20A33
331
20A34
331
20A35
331
20A36
331
20A37
331
20A38
331
20A39
331
20A3A
331
20A3B
331
20A3C
331
20A3D
331
20A3E
331
20A3F
331
20A40
331
20A41
331
20A54
331
20A55
331
20A56
331
20A57
331
20A58
331
20A59
331
20A5A
331
20A5B
331
20A5C
331
20A5D
331
20A5E
331
20A5F
331
20A60
331
20A61
331
20A62
331
20A63
331
20A64
331
20A65
331
20A66
331
20A67
331
20A68
331
20A69
331
20A6A
331
20A6B
331
20A6C
331
20A6D
331
20A6E
331
20A6F
331
20A70
331
20A71
331
20A72
331
20A73
331
20A74
331
20A75
331
20A76
331
20A77
331
20A78
331
20A79
331
20A7A
331
20A7B
331
20A7C
331
20A7D
331
20A7E
331
20A7F
331
20A80
331
20A81
331
20A82
331
20A83
331
20A84
331
20A85
331
20A86
331
20A9E
331
20A9F
331
20AA0
331
20AA1
331
20AA2
331
20AA3
331
20AA4
331
20AA5
331
20AA6
331
20AA7
331
20AA8
331
20AA9
331
20AAA
331
20AAB
331
20AAC
331
20AAD
331
20AAE
331
20AAF
331
20AB0
331
20AB1
331
20AB2
331
20AB3
331
20AB4
331
20AB5
331
20AB6
331
20AC9
331
20ACA
331
20ACB
331
20ACC
331
20ACD
331
20ACE
331
20ACF
331
20AD0
331
20AD1
331
20AD2
331
20AD3
331
20AD4
331
20AD5
331
20AD6
331
20AD7
331
20AD8
331
20AD9
331
20ADA
331
20ADB
331
20ADC
331
20ADD
331
20ADE
331
20ADF
331
20AE0
331
20AE1
331
20AE2
331
20AE3
331
20AE4
331
20AE5
331
20AE6
331
20AE7
331
20AE8
331
20AE9
331
20AEA
331
20AEB
331
20AEC
331
20AED
331
20AEE
331
20AEF
331
20AF0
331
20AF1
331
20AF2
331
20AF3
331
20AF4
331
20AF5
331
20AF6
331
20AF7
331
20AF8
331
20AF9
331
20AFA
331
20AFB
331
20BA7
331
20BA8
331
20BA9
331
20BAA
331
20BAB
331
20BAC
331
20BAD
331
20BAE
331
20BAF
331
20BB0
331
20BB1
331
20BB2
331
20BB3
331
20BB4
331
20BB5
331
20BB6
331
20BB7
331
20BB8
331
20BB9
331
20BBA
331
20BBB
331
20BBC
331
20BBD
331
20BBE
331
20BBF
102
}
  0
BLOCK_RECORD
  5
1EFAB
330
1
100
AcDbSymbolTableRecord
100
AcDbBlockTableRecord
  2
ARRO2
340
0
102
{BLKREFS
331
20BD2
102
}
  0
ENDTAB
  0
ENDSEC
  0
SECTION
  2
BLOCKS
  0
BLOCK
  5
1B
330
1A
100
AcDbEntity
  8
0
100
AcDbBlockBegin
  2
*MODEL_SPACE
 70
     0
 10
0.0
 20
0.0
 30
0.0
  3
*MODEL_SPACE
  1

  0
ENDBLK
  5
1C
330
1A
100
AcDbEntity
  8
0
100
AcDbBlockEnd
  0
BLOCK
  5
18
330
17
100
AcDbEntity
 67
     1
  8
0
100
AcDbBlockBegin
  2
*PAPER_SPACE
 70
     0
 10
0.0
 20
0.0
 30
0.0
  3
*PAPER_SPACE
  1

  0
ENDBLK
  5
19
330
17
100
AcDbEntity
 67
     1
  8
0
100
AcDbBlockEnd
  0
BLOCK
  5
1E70A
330
1E707
100
AcDbEntity
  8
0
100
AcDbBlockBegin
  2
A$C0da8e90c
 70
     0
 10
0.0
 20
0.0
 30
0.0
  3
A$C0da8e90c
  1

  0
LINE
  5
1E70B
330
1E707
100
AcDbEntity
  8
HANDLE
100
AcDbLine
 10
-1.193640979519827
 20
4.734373926643332
 30
0.0
 11
2.306359020480172
 21
4.734373926643332
 31
0.0
  0
LINE
  5
1E70C
330
1E707
100
AcDbEntity
  8
HANDLE
100
AcDbLine
 10
-1.326697382190772
 20
4.984373926643332
 30
0.0
 11
2.439415423151118
 21
4.984373926643332
 31
0.0
  0
ARC
  5
1E70D
330
1E707
100
AcDbEntity
  8
HANDLE
100
AcDbCircle
 10
2.439415423151118
 20
4.859373926643332
 30
0.0
 40
0.125
100
AcDbArc
 50
356.4236656250027
 51
90.0
  0
ARC
  5
1E70E
330
1E707
100
AcDbEntity
  8
HANDLE
100
AcDbCircle
 10
-1.326697382190772
 20
4.859373926643332
 30
0.0
 40
0.125
100
AcDbArc
 50
90.0
 51
183.5763343749973
  0
LINE
  5
1E70F
330
1E707
100
AcDbEntity
  8
HANDLE
100
AcDbLine
 10
-0.8811409795198272
 20
-0.265626073356664
 30
0.0
 11
1.993859020480172
 21
-0.265626073356664
 31
0.0
  0
LINE
  5
1E710
330
1E707
100
AcDbEntity
  8
HANDLE
100
AcDbLine
 10
-0.9985723821907726
 20
-0.515626073356664
 30
0.0
 11
2.111290423151118
 21
-0.515626073356664
 31
0.0
  0
ARC
  5
1E711
330
1E707
100
AcDbEntity
  8
HANDLE
100
AcDbCircle
 10
2.111290423151118
 20
-0.390626073356664
 30
0.0
 40
0.125
100
AcDbArc
 50
270.0
 51
356.4236656250027
  0
LINE
  5
1E712
330
1E707
100
AcDbEntity
  8
HANDLE
100
AcDbLine
 10
2.306359020480172
 20
4.734373926643332
 30
0.0
 11
1.993859020480172
 21
-0.265626073356664
 31
0.0
  0
LINE
  5
1E713
330
1E707
100
AcDbEntity
  8
HANDLE
100
AcDbLine
 10
2.564171995461478
 20
4.851576640873933
 30
0.0
 11
2.236046995461478
 21
-0.3984233591260633
 31
0.0
  0
LINE
  5
1E714
330
1E707
100
AcDbEntity
  8
HANDLE
100
AcDbLine
 10
-0.8811409795198272
 20
-0.265626073356664
 30
0.0
 11
-1.193640979519827
 21
4.734373926643332
 31
0.0
  0
LINE
  5
1E715
330
1E707
100
AcDbEntity
  8
HANDLE
100
AcDbLine
 10
-1.123328954501133
 20
-0.3984233591260633
 30
0.0
 11
-1.451453954501133
 21
4.851576640873933
 31
0.0
  0
ARC
  5
1E716
330
1E707
100
AcDbEntity
  8
HANDLE
100
AcDbCircle
 10
-0.9985723821907726
 20
-0.390626073356664
 30
0.0
 40
0.125
100
AcDbArc
 50
183.5763343749973
 51
270.0
  0
LINE
  5
1E717
330
1E707
100
AcDbEntity
  8
HANDLE
100
AcDbLine
 10
-1.193640979519827
 20
4.734373926643332
 30
0.0
 11
-1.417800786960228
 21
4.944961131524742
 31
0.0
  0
LINE
  5
1E718
330
1E707
100
AcDbEntity
  8
HANDLE
100
AcDbLine
 10
2.306359020480172
 20
4.734373926643332
 30
0.0
 11
2.530518827920573
 21
4.944961131524742
 31
0.0
  0
LINE
  5
1E719
330
1E707
100
AcDbEntity
  8
HANDLE
100
AcDbLine
 10
1.993859020480172
 20
-0.265626073356664
 30
0.0
 11
2.196877628032538
 21
-0.4817294781261197
 31
0.0
  0
LINE
  5
1E71A
330
1E707
100
AcDbEntity
  8
HANDLE
100
AcDbLine
 10
-0.8811409795198272
 20
-0.265626073356664
 30
0.0
 11
-1.084159587072193
 21
-0.4817294781261197
 31
0.0
  0
LINE
  5
1E71B
330
1E707
100
AcDbEntity
  8
HANDLE
100
AcDbLine
 10
0.4063590204801671
 20
4.67287392664333
 30
0.0
 11
0.4063590204801671
 21
3.826873926643333
 31
0.0
  0
LINE
  5
1E71C
330
1E707
100
AcDbEntity
  8
HANDLE
100
AcDbLine
 10
0.2753590204801668
 20
4.732873926643332
 30
0.0
 11
0.2753590204801668
 21
4.734373926643332
 31
0.0
  0
ARC
  5
1E71D
330
1E707
100
AcDbEntity
  8
HANDLE
100
AcDbCircle
 10
0.3053590204801679
 20
4.732873926643332
 30
0.0
 40
0.03
100
AcDbArc
 50
180.0
 51
270.0
  0
LINE
  5
1E71E
330
1E707
100
AcDbEntity
  8
HANDLE
100
AcDbLine
 10
0.7063590204801642
 20
4.67287392664333
 30
0.0
 11
0.7063590204801784
 21
3.826873926643333
 31
0.0
  0
LINE
  5
1E71F
330
1E707
100
AcDbEntity
  8
HANDLE
100
AcDbLine
 10
0.8373590204801786
 20
4.732873926643332
 30
0.0
 11
0.8373590204801786
 21
4.734373926643332
 31
0.0
  0
ARC
  5
1E720
330
1E707
100
AcDbEntity
  8
HANDLE
100
AcDbCircle
 10
0.8073590204801774
 20
4.732873926643332
 30
0.0
 40
0.03
100
AcDbArc
 50
270.0
 51
0.0
  0
ARC
  5
1E721
330
1E707
100
AcDbEntity
  8
HANDLE
100
AcDbCircle
 10
0.6763590204801773
 20
3.826873926643333
 30
0.0
 40
0.03
100
AcDbArc
 50
270.0
 51
0.0
  0
LINE
  5
1E722
330
1E707
100
AcDbEntity
  8
HANDLE
100
AcDbLine
 10
0.4363590204801682
 20
3.796873926643332
 30
0.0
 11
0.6763590204801773
 21
3.796873926643332
 31
0.0
  0
ARC
  5
1E723
330
1E707
100
AcDbEntity
  8
HANDLE
100
AcDbCircle
 10
0.4363590204801682
 20
3.826873926643333
 30
0.0
 40
0.03
100
AcDbArc
 50
180.0
 51
270.0
  0
LINE
  5
1E724
330
1E707
100
AcDbEntity
  8
HANDLE
100
AcDbLine
 10
0.3053590204801679
 20
4.702873926643331
 30
0.0
 11
0.3763590204801659
 21
4.702873926643331
 31
0.0
  0
ARC
  5
1E725
330
1E707
100
AcDbEntity
  8
HANDLE
100
AcDbCircle
 10
0.3763590204801659
 20
4.67287392664333
 30
0.0
 40
0.03
100
AcDbArc
 50
0.0
 51
90.0
  0
LINE
  5
1E726
330
1E707
100
AcDbEntity
  8
HANDLE
100
AcDbLine
 10
0.7363590204801654
 20
4.702873926643331
 30
0.0
 11
0.8073590204801774
 21
4.702873926643331
 31
0.0
  0
ARC
  5
1E727
330
1E707
100
AcDbEntity
  8
HANDLE
100
AcDbCircle
 10
0.7363590204801654
 20
4.67287392664333
 30
0.0
 40
0.03
100
AcDbArc
 50
90.0000000000004
 51
180.0000000000004
  0
CIRCLE
  5
1E728
330
1E707
100
AcDbEntity
  8
HANDLE
100
AcDbCircle
 10
0.5563590204801728
 20
2.92587392664333
 30
0.0
 40
0.109375
  0
CIRCLE
  5
1E729
330
1E707
100
AcDbEntity
  8
HANDLE
100
AcDbCircle
 10
0.5563590204801728
 20
1.832873926643333
 30
0.0
 40
0.328125
  0
CIRCLE
  5
1E72A
330
1E707
100
AcDbEntity
  8
HANDLE
100
AcDbCircle
 10
0.5563590204801728
 20
0.7398739266433303
 30
0.0
 40
0.109375
  0
ENDBLK
  5
1E72B
330
1E707
100
AcDbEntity
  8
0
100
AcDbBlockEnd
  0
BLOCK
  5
1E72F
330
1E72C
100
AcDbEntity
  8
0
100
AcDbBlockBegin
  2
A$C6895fdcc
 70
     0
 10
0.0
 20
0.0
 30
0.0
  3
A$C6895fdcc
  1

  0
LINE
  5
1E730
330
1E72C
100
AcDbEntity
  8
0 DIAMONDS
  6
HS
100
AcDbLine
 10
0.0493175358351437
 20
-0.4993160339145107
 30
0.0
 11
0.2376805279272958
 21
-0.1171560233942728
 31
0.0
  0
LINE
  5
1E731
330
1E72C
100
AcDbEntity
  8
0 DIAMONDS
  6
HS
100
AcDbLine
 10
-0.2376957833475899
 20
-0.1171615137482149
 30
0.0
 11
-0.0493344904461992
 21
-0.4993181026238745
 31
0.0
  0
LINE
  5
1E732
330
1E72C
100
AcDbEntity
  8
0 DIAMONDS
  6
HS
100
AcDbLine
 10
-0.2377137994262739
 20
0.1171702978554094
 30
0.0
 11
-0.0493502209792496
 21
0.4993257693549822
 31
0.0
  0
LINE
  5
1E733
330
1E72C
100
AcDbEntity
  8
0 DIAMONDS
  6
HS
100
AcDbLine
 10
0.04933636347414
 20
0.4993074427929969
 30
0.0
 11
0.2376951826445293
 21
0.1171538946400688
 31
0.0
  0
ARC
  5
1E734
330
1E72C
100
AcDbEntity
  8
0 DIAMONDS
  6
HS
100
AcDbCircle
 10
0.0
 20
0.0
 30
0.0
 40
0.2649999856948853
100
AcDbArc
 50
153.7617513501023
 51
206.2382450074554
  0
ARC
  5
1E735
330
1E72C
100
AcDbEntity
  8
0 DIAMONDS
  6
HS
100
AcDbCircle
 10
0.0
 20
0.4749984741210938
 30
0.0
 40
0.0549999997019768
100
AcDbArc
 50
26.23804875311714
 51
153.7619562559177
  0
ARC
  5
1E736
330
1E72C
100
AcDbEntity
  8
0 DIAMONDS
  6
HS
100
AcDbCircle
 10
0.0
 20
-0.4749984741210938
 30
0.0
 40
0.0549999997019768
100
AcDbArc
 50
206.2380437440823
 51
333.7619512468829
  0
ARC
  5
1E737
330
1E72C
100
AcDbEntity
  8
0 DIAMONDS
  6
HS
100
AcDbCircle
 10
0.0
 20
0.0
 30
0.0
 40
0.2649999856948853
100
AcDbArc
 50
333.7617531715091
 51
26.2382468284909
  0
ENDBLK
  5
1E738
330
1E72C
100
AcDbEntity
  8
0
100
AcDbBlockEnd
  0
BLOCK
  5
1EFAC
330
1EFAB
100
AcDbEntity
  8
0
100
AcDbBlockBegin
  2
ARRO2
 70
     0
 10
0.0
 20
0.0
 30
0.0
  3
ARRO2
  1

  0
LINE
  5
1EFAD
330
1EFAB
100
AcDbEntity
  8
coat rod
100
AcDbLine
 10
-0.124999999999992
 20
-0.0200000000000005
 30
0.0
 11
0.000000000000008
 21
-0.0000000000000009
 31
0.0
  0
LINE
  5
1EFAE
330
1EFAB
100
AcDbEntity
  8
coat rod
100
AcDbLine
 10
0.000000000000008
 20
-0.0000000000000009
 30
0.0
 11
-0.124999999999992
 21
0.0199999999999996
 31
0.0
  0
LINE
  5
1EFAF
330
1EFAB
100
AcDbEntity
  8
coat rod
100
AcDbLine
 10
-0.124999999999992
 20
-0.0099999999999998
 30
0.0
 11
0.000000000000008
 21
-0.0000000000000009
 31
0.0
  0
LINE
  5
1EFB0
330
1EFAB
100
AcDbEntity
  8
coat rod
100
AcDbLine
 10
-0.124999999999992
 20
0.0099999999999998
 30
0.0
 11
0.0000000000000089
 21
-0.0000000000000009
 31
0.0
  0
LINE
  5
1EFB1
330
1EFAB
100
AcDbEntity
  8
coat rod
100
AcDbLine
 10
-0.124999999999992
 20
-0.0200000000000005
 30
0.0
 11
-0.124999999999992
 21
0.0199999999999996
 31
0.0
  0
LINE
  5
1EFB2
330
1EFAB
100
AcDbEntity
  8
coat rod
100
AcDbLine
 10
0.1250000000000124
 20
0.0199999999999987
 30
0.0
 11
0.1250000000000124
 21
-0.0200000000000014
 31
0.0
  0
LINE
  5
1EFB3
330
1EFAB
100
AcDbEntity
  8
coat rod
100
AcDbLine
 10
0.1250000000000124
 20
-0.0100000000000016
 30
0.0
 11
0.0000000000000115
 21
-0.0000000000000009
 31
0.0
  0
LINE
  5
1EFB4
330
1EFAB
100
AcDbEntity
  8
coat rod
100
AcDbLine
 10
0.1250000000000124
 20
0.009999999999998
 30
0.0
 11
0.0000000000000124
 21
-0.0000000000000009
 31
0.0
  0
LINE
  5
1EFB5
330
1EFAB
100
AcDbEntity
  8
coat rod
100
AcDbLine
 10
0.0000000000000124
 20
-0.0000000000000009
 30
0.0
 11
0.1250000000000124
 21
-0.0200000000000014
 31
0.0
  0
LINE
  5
1EFB6
330
1EFAB
100
AcDbEntity
  8
coat rod
100
AcDbLine
 10
0.1250000000000124
 20
0.0199999999999987
 30
0.0
 11
0.0000000000000124
 21
-0.0000000000000009
 31
0.0
  0
ENDBLK
  5
1EFB7
330
1EFAB
100
AcDbEntity
  8
0
100
AcDbBlockEnd
  0
ENDSEC
  0
SECTION
  2
ENTITIES
  0
TEXT
  5
16791
330
1A
100
AcDbEntity
  8
TEXT
100
AcDbText
 10
8.224565459720466
 20
15.70316061444471
 30
0.0
 40
0.125
  1

100
AcDbText
  0
TEXT
  5
17A1C
330
1A
100
AcDbEntity
  8
locker
100
AcDbText
 10
27.151014806888
 20
31.71777575150072
 30
0.0
 40
0.085
  1
 
 72
     1
 11
27.19351480688799
 21
31.71777575150072
 31
0.0
100
AcDbText
  0
LWPOLYLINE
  5
20A15
330
1A
100
AcDbEntity
  8
border1
100
AcDbPolyline
 90
        4
 70
     1
 43
0.0
 10
-0.0000249764998443
 20
126.0009652085864
 10
198.0015748636215
 20
126.0009652085864
 10
198.0015748636215
 20
-0.000052871517255
 10
-0.0000249764998443
 20
-0.000052871517255
  0
LINE
  5
20A16
330
1A
100
AcDbEntity
  8
ELEVATION
100
AcDbLine
 10
49.20811812143802
 20
33.99122482536223
 30
0.0
 11
49.70808758895874
 21
33.99122482536223
 31
0.0
  0
LINE
  5
20A17
330
1A
100
AcDbEntity
  8
ELEVATION
100
AcDbLine
 10
57.20808718662738
 20
33.99122482536223
 30
0.0
 11
57.70812531869887
 21
33.99122482536223
 31
0.0
  0
LINE
  5
20A18
330
1A
100
AcDbEntity
  8
ELEVATION
100
AcDbLine
 10
57.20808718662738
 20
102.6162227801778
 30
0.0
 11
57.70812531869887
 21
102.6162227801778
 31
0.0
  0
LINE
  5
20A19
330
1A
100
AcDbEntity
  8
ELEVATION
100
AcDbLine
 10
49.20811812143802
 20
102.6162227801778
 30
0.0
 11
49.70808758895874
 21
102.6162227801778
 31
0.0
  0
ARC
  5
20A1A
330
1A
100
AcDbEntity
  8
ELEVATION
100
AcDbCircle
 10
49.70815625350951
 20
33.74121720342009
 30
0.0
 40
0.25
100
AcDbArc
 50
0.0
 51
89.99998201364064
  0
ARC
  5
20A1B
330
1A
100
AcDbEntity
  8
ELEVATION
100
AcDbCircle
 10
49.2081867859888
 20
33.74121720342009
 30
0.0
 40
0.25
100
AcDbArc
 50
89.99998201364064
 51
180.0000186693157
  0
ARC
  5
20A1C
330
1A
100
AcDbEntity
  8
ELEVATION
100
AcDbCircle
 10
57.70814820688247
 20
33.74121720342009
 30
0.0
 40
0.25
100
AcDbArc
 50
0.0
 51
89.99998201364064
  0
ARC
  5
20A1D
330
1A
100
AcDbEntity
  8
ELEVATION
100
AcDbCircle
 10
57.20815585117816
 20
33.74121720342009
 30
0.0
 40
0.25
100
AcDbArc
 50
89.99998201364064
 51
180.0000186693157
  0
ARC
  5
20A1E
330
1A
100
AcDbEntity
  8
ELEVATION
100
AcDbCircle
 10
57.70814820688247
 20
102.8662532903054
 30
0.0
 40
0.25
100
AcDbArc
 50
270.0000179859425
 51
0.0
  0
ARC
  5
20A1F
330
1A
100
AcDbEntity
  8
ELEVATION
100
AcDbCircle
 10
57.20815585117816
 20
102.8662532903054
 30
0.0
 40
0.25
100
AcDbArc
 50
180.0000223118192
 51
270.0000589670775
  0
ARC
  5
20A20
330
1A
100
AcDbEntity
  8
ELEVATION
100
AcDbCircle
 10
49.70815625350951
 20
102.8662532903054
 30
0.0
 40
0.25
100
AcDbArc
 50
270.0000179859425
 51
0.0
  0
ARC
  5
20A21
330
1A
100
AcDbEntity
  8
ELEVATION
100
AcDbCircle
 10
49.2081867859888
 20
102.8662532903054
 30
0.0
 40
0.25
100
AcDbArc
 50
180.0000223118192
 51
270.0000589670775
  0
LWPOLYLINE
  5
20A22
330
1A
100
AcDbEntity
  8
ELEVATION
100
AcDbPolyline
 90
        4
 70
     1
 43
0.0
 10
48.95808761131047
 20
32.30372487565364
 10
57.95808761131048
 20
32.30372487565364
 10
57.95808761131048
 20
104.3037248756536
 10
48.95808761131047
 20
104.3037248756536
  0
LWPOLYLINE
  5
20A23
330
1A
100
AcDbEntity
  8
ELEVATION
100
AcDbPolyline
 90
        4
 70
     1
 43
0.0
 10
49.95808761131048
 20
33.30372487565365
 10
56.95808761131047
 20
33.30372487565365
 10
56.95808761131047
 20
103.3037248756536
 10
49.95808761131048
 20
103.3037248756536
  0
LINE
  5
20A24
330
1A
100
AcDbEntity
  8
ELEVATION
100
AcDbLine
 10
50.03621261131048
 20
33.42872487565364
 30
0.0
 11
56.91121261131048
 21
33.42872487565364
 31
0.0
  0
LINE
  5
20A25
330
1A
100
AcDbEntity
  8
ELEVATION
100
AcDbLine
 10
56.91121261131048
 20
33.42872487565364
 30
0.0
 11
56.91121261131048
 21
103.2412248756536
 31
0.0
  0
LINE
  5
20A26
330
1A
100
AcDbEntity
  8
ELEVATION
100
AcDbLine
 10
56.91121261131048
 20
103.2412248756536
 30
0.0
 11
50.03621261131048
 21
103.2412248756536
 31
0.0
  0
LINE
  5
20A27
330
1A
100
AcDbEntity
  8
ELEVATION
100
AcDbLine
 10
50.03621261131048
 20
103.2412248756536
 30
0.0
 11
50.03621261131048
 21
33.42872487565364
 31
0.0
  0
INSERT
  5
20A28
330
1A
100
AcDbEntity
  8
OBJECT
100
AcDbBlockReference
  2
A$C0da8e90c
 10
52.91735359083395
 20
63.25710214193714
 30
0.0
  0
INSERT
  5
20A29
330
1A
100
AcDbEntity
  8
OBJECT
100
AcDbBlockReference
  2
A$C6895fdcc
 10
54.97371261131047
 20
100.2412248756536
 30
0.0
  0
INSERT
  5
20A2A
330
1A
100
AcDbEntity
  8
OBJECT
100
AcDbBlockReference
  2
A$C6895fdcc
 10
54.97371261131047
 20
98.74122487565365
 30
0.0
  0
INSERT
  5
20A2B
330
1A
100
AcDbEntity
  8
OBJECT
100
AcDbBlockReference
  2
A$C6895fdcc
 10
51.97371261131047
 20
98.74122487565365
 30
0.0
  0
INSERT
  5
20A2C
330
1A
100
AcDbEntity
  8
OBJECT
100
AcDbBlockReference
  2
A$C6895fdcc
 10
54.97371261131047
 20
97.24122487565365
 30
0.0
  0
INSERT
  5
20A2D
330
1A
100
AcDbEntity
  8
OBJECT
100
AcDbBlockReference
  2
A$C6895fdcc
 10
51.97371261131047
 20
97.24122487565365
 30
0.0
  0
INSERT
  5
20A2E
330
1A
100
AcDbEntity
  8
OBJECT
100
AcDbBlockReference
  2
A$C6895fdcc
 10
54.97371261131047
 20
95.74122487565364
 30
0.0
  0
INSERT
  5
20A2F
330
1A
100
AcDbEntity
  8
OBJECT
100
AcDbBlockReference
  2
A$C6895fdcc
 10
51.97371261131047
 20
95.74122487565364
 30
0.0
  0
INSERT
  5
20A30
330
1A
100
AcDbEntity
  8
OBJECT
100
AcDbBlockReference
  2
A$C6895fdcc
 10
54.97371261131047
 20
94.24122487565364
 30
0.0
  0
INSERT
  5
20A31
330
1A
100
AcDbEntity
  8
OBJECT
100
AcDbBlockReference
  2
A$C6895fdcc
 10
51.97371261131047
 20
94.24122487565364
 30
0.0
  0
INSERT
  5
20A32
330
1A
100
AcDbEntity
  8
OBJECT
100
AcDbBlockReference
  2
A$C6895fdcc
 10
54.97371261131047
 20
92.74122487565364
 30
0.0
  0
INSERT
  5
20A33
330
1A
100
AcDbEntity
  8
OBJECT
100
AcDbBlockReference
  2
A$C6895fdcc
 10
51.97371261131047
 20
92.74122487565364
 30
0.0
  0
INSERT
  5
20A34
330
1A
100
AcDbEntity
  8
OBJECT
100
AcDbBlockReference
  2
A$C6895fdcc
 10
54.97371261131047
 20
91.24122487565363
 30
0.0
  0
INSERT
  5
20A35
330
1A
100
AcDbEntity
  8
OBJECT
100
AcDbBlockReference
  2
A$C6895fdcc
 10
51.97371261131047
 20
91.24122487565363
 30
0.0
  0
INSERT
  5
20A36
330
1A
100
AcDbEntity
  8
OBJECT
100
AcDbBlockReference
  2
A$C6895fdcc
 10
54.97371261131047
 20
89.74122487565365
 30
0.0
  0
INSERT
  5
20A37
330
1A
100
AcDbEntity
  8
OBJECT
100
AcDbBlockReference
  2
A$C6895fdcc
 10
51.97371261131047
 20
89.74122487565365
 30
0.0
  0
INSERT
  5
20A38
330
1A
100
AcDbEntity
  8
OBJECT
100
AcDbBlockReference
  2
A$C6895fdcc
 10
54.97371261131047
 20
88.24122487565364
 30
0.0
  0
INSERT
  5
20A39
330
1A
100
AcDbEntity
  8
OBJECT
100
AcDbBlockReference
  2
A$C6895fdcc
 10
51.97371261131047
 20
88.24122487565364
 30
0.0
  0
INSERT
  5
20A3A
330
1A
100
AcDbEntity
  8
OBJECT
100
AcDbBlockReference
  2
A$C6895fdcc
 10
54.97371261131047
 20
86.74122487565364
 30
0.0
  0
INSERT
  5
20A3B
330
1A
100
AcDbEntity
  8
OBJECT
100
AcDbBlockReference
  2
A$C6895fdcc
 10
51.97371261131047
 20
86.74122487565364
 30
0.0
  0
INSERT
  5
20A3C
330
1A
100
AcDbEntity
  8
OBJECT
100
AcDbBlockReference
  2
A$C6895fdcc
 10
54.97371261131047
 20
85.24122487565364
 30
0.0
  0
INSERT
  5
20A3D
330
1A
100
AcDbEntity
  8
OBJECT
100
AcDbBlockReference
  2
A$C6895fdcc
 10
51.97371261131047
 20
85.24122487565364
 30
0.0
  0
INSERT
  5
20A3E
330
1A
100
AcDbEntity
  8
OBJECT
100
AcDbBlockReference
  2
A$C6895fdcc
 10
54.97371261131047
 20
71.74122487565364
 30
0.0
  0
INSERT
  5
20A3F
330
1A
100
AcDbEntity
  8
OBJECT
100
AcDbBlockReference
  2
A$C6895fdcc
 10
51.97371261131047
 20
71.74122487565364
 30
0.0
  0
INSERT
  5
20A40
330
1A
100
AcDbEntity
  8
OBJECT
100
AcDbBlockReference
  2
A$C6895fdcc
 10
54.47371261131047
 20
70.99122487565364
 30
0.0
  0
INSERT
  5
20A41
330
1A
100
AcDbEntity
  8
OBJECT
100
AcDbBlockReference
  2
A$C6895fdcc
 10
52.47371261131047
 20
70.99122487565364
 30
0.0
  0
CIRCLE
  5
20A42
330
1A
100
AcDbEntity
  8
ELEVATION
100
AcDbCircle
 10
54.55182249280188
 20
102.053770372624
 30
0.0
 40
0.0625000100000004
  0
CIRCLE
  5
20A43
330
1A
100
AcDbEntity
  8
ELEVATION
100
AcDbCircle
 10
52.36430694949376
 20
102.053770372624
 30
0.0
 40
0.0625000100000004
  0
LINE
  5
20A44
330
1A
100
AcDbEntity
  8
0 OBJECT BORDER
100
AcDbLine
 10
52.09275479260395
 20
101.5687703338135
 30
0.0
 11
54.82335928123939
 21
101.5687703338135
 31
0.0
  0
ARC
  5
20A45
330
1A
100
AcDbEntity
  8
0 OBJECT BORDER
100
AcDbCircle
 10
52.31431678491208
 20
102.064270373472
 30
0.0
 40
0.187500015
100
AcDbArc
 50
104.3102750721047
 51
169.6338360115885
  0
ARC
  5
20A46
330
1A
100
AcDbEntity
  8
0 OBJECT BORDER
100
AcDbCircle
 10
54.60179728904768
 20
102.064270373472
 30
0.0
 40
0.187500015
100
AcDbArc
 50
10.36616398841153
 51
75.68972492789528
  0
LINE
  5
20A47
330
1A
100
AcDbEntity
  8
0 OBJECT BORDER
100
AcDbLine
 10
52.0548673176163
 20
101.6879485662011
 30
0.0
 11
52.12987716292992
 21
102.0980088010347
 31
0.0
  0
ARC
  5
20A48
330
1A
100
AcDbEntity
  8
0 OBJECT BORDER
100
AcDbCircle
 10
52.23930693948204
 20
101.6542101386385
 30
0.0
 40
0.187500015
100
AcDbArc
 50
169.6338360115885
 51
200.2926116435396
  0
ARC
  5
20A49
330
1A
100
AcDbEntity
  8
0 OBJECT BORDER
100
AcDbCircle
 10
52.09275479260395
 20
101.6000203363164
 30
0.0
 40
0.0312500025
100
AcDbArc
 50
200.2926116435396
 51
270.0
  0
LINE
  5
20A4A
330
1A
100
AcDbEntity
  8
0 OBJECT BORDER
100
AcDbLine
 10
54.86124675645988
 20
101.6879485662011
 30
0.0
 11
54.78623691102985
 21
102.0980088010347
 31
0.0
  0
ARC
  5
20A4B
330
1A
100
AcDbEntity
  8
0 OBJECT BORDER
100
AcDbCircle
 10
54.67680713459412
 20
101.6542101386385
 30
0.0
 40
0.187500015
100
AcDbArc
 50
339.7073883564605
 51
10.36616398841153
  0
ARC
  5
20A4C
330
1A
100
AcDbEntity
  8
0 OBJECT BORDER
100
AcDbCircle
 10
54.82335928123939
 20
101.6000203363164
 30
0.0
 40
0.0312500025
100
AcDbArc
 50
270.0
 51
339.7073883564605
  0
LINE
  5
20A4D
330
1A
100
AcDbEntity
  8
0 OBJECT BORDER
100
AcDbLine
 10
53.36536723486642
 20
102.525884693061
 30
0.0
 11
52.26797188370984
 21
102.245952529347
 31
0.0
  0
LINE
  5
20A4E
330
1A
100
AcDbEntity
  8
0 OBJECT BORDER
100
AcDbLine
 10
53.55074683920975
 20
102.525884693061
 30
0.0
 11
54.64814219024993
 21
102.245952529347
 31
0.0
  0
ARC
  5
20A4F
330
1A
100
AcDbEntity
  8
0 OBJECT BORDER
100
AcDbCircle
 10
53.45805703692168
 20
102.1625203813109
 30
0.0
 40
0.37500003
100
AcDbArc
 50
75.68972492789528
 51
104.3102750721047
  0
LINE
  5
20A50
330
1A
100
AcDbEntity
  8
diamonds
  6
PHANTOM2
 62
     2
 48
2.0
100
AcDbLine
 10
51.20812571986608
 20
70.99122488407738
 30
0.0
 11
55.73929950276215
 21
70.99122488407738
 31
0.0
  0
LINE
  5
20A51
330
1A
100
AcDbEntity
  8
diamonds
  6
PHANTOM2
 62
     2
 48
2.0
100
AcDbLine
 10
51.97380416406668
 20
70.79687546608329
 30
0.0
 11
51.97380416404485
 21
101.1013170435126
 31
0.0
  0
LINE
  5
20A52
330
1A
100
AcDbEntity
  8
diamonds
  6
PHANTOM2
 62
     2
 48
2.0
100
AcDbLine
 10
51.20812571986608
 20
100.2287851088131
 30
0.0
 11
55.73929950276215
 21
100.2287851088131
 31
0.0
  0
LINE
  5
20A53
330
1A
100
AcDbEntity
  8
diamonds
  6
PHANTOM2
 62
     2
 48
2.0
100
AcDbLine
 10
54.97380416406667
 20
70.79687546608329
 30
0.0
 11
54.97380416404485
 21
101.1013170435126
 31
0.0
  0
INSERT
  5
20A54
330
1A
100
AcDbEntity
  8
OBJECT
100
AcDbBlockReference
  2
A$C6895fdcc
 10
51.97371242132067
 20
100.2412248756536
 30
0.0
  0
INSERT
  5
20A55
330
1A
100
AcDbEntity
  8
OBJECT
100
AcDbBlockReference
  2
A$C6895fdcc
 10
54.97371261131047
 20
83.74122487565363
 30
0.0
  0
INSERT
  5
20A56
330
1A
100
AcDbEntity
  8
OBJECT
100
AcDbBlockReference
  2
A$C6895fdcc
 10
51.97371261131047
 20
83.74122487565363
 30
0.0
  0
INSERT
  5
20A57
330
1A
100
AcDbEntity
  8
OBJECT
100
AcDbBlockReference
  2
A$C6895fdcc
 10
54.97371261131047
 20
82.24122487565365
 30
0.0
  0
INSERT
  5
20A58
330
1A
100
AcDbEntity
  8
OBJECT
100
AcDbBlockReference
  2
A$C6895fdcc
 10
51.97371261131047
 20
82.24122487565365
 30
0.0
  0
INSERT
  5
20A59
330
1A
100
AcDbEntity
  8
OBJECT
100
AcDbBlockReference
  2
A$C6895fdcc
 10
54.97371261131047
 20
80.74122487565364
 30
0.0
  0
INSERT
  5
20A5A
330
1A
100
AcDbEntity
  8
OBJECT
100
AcDbBlockReference
  2
A$C6895fdcc
 10
51.97371261131047
 20
80.74122487565364
 30
0.0
  0
INSERT
  5
20A5B
330
1A
100
AcDbEntity
  8
OBJECT
100
AcDbBlockReference
  2
A$C6895fdcc
 10
54.97371261131047
 20
79.24122487565364
 30
0.0
  0
INSERT
  5
20A5C
330
1A
100
AcDbEntity
  8
OBJECT
100
AcDbBlockReference
  2
A$C6895fdcc
 10
51.97371261131047
 20
79.24122487565364
 30
0.0
  0
INSERT
  5
20A5D
330
1A
100
AcDbEntity
  8
OBJECT
100
AcDbBlockReference
  2
A$C6895fdcc
 10
54.97371261131047
 20
77.74122487565364
 30
0.0
  0
INSERT
  5
20A5E
330
1A
100
AcDbEntity
  8
OBJECT
100
AcDbBlockReference
  2
A$C6895fdcc
 10
51.97371261131047
 20
77.74122487565364
 30
0.0
  0
INSERT
  5
20A5F
330
1A
100
AcDbEntity
  8
OBJECT
100
AcDbBlockReference
  2
A$C6895fdcc
 10
54.97371261131047
 20
76.24122487565364
 30
0.0
  0
INSERT
  5
20A60
330
1A
100
AcDbEntity
  8
OBJECT
100
AcDbBlockReference
  2
A$C6895fdcc
 10
51.97371261131047
 20
76.24122487565364
 30
0.0
  0
INSERT
  5
20A61
330
1A
100
AcDbEntity
  8
OBJECT
100
AcDbBlockReference
  2
A$C6895fdcc
 10
54.97371261131047
 20
74.74122487565364
 30
0.0
  0
INSERT
  5
20A62
330
1A
100
AcDbEntity
  8
OBJECT
100
AcDbBlockReference
  2
A$C6895fdcc
 10
51.97371261131047
 20
74.74122487565364
 30
0.0
  0
INSERT
  5
20A63
330
1A
100
AcDbEntity
  8
OBJECT
100
AcDbBlockReference
  2
A$C6895fdcc
 10
54.97371261131047
 20
73.24122487565364
 30
0.0
  0
INSERT
  5
20A64
330
1A
100
AcDbEntity
  8
OBJECT
100
AcDbBlockReference
  2
A$C6895fdcc
 10
51.97371261131047
 20
73.24122487565364
 30
0.0
  0
INSERT
  5
20A65
330
1A
100
AcDbEntity
  8
OBJECT
100
AcDbBlockReference
  2
A$C6895fdcc
 10
54.97371261131047
 20
58.92872279694348
 30
0.0
  0
INSERT
  5
20A66
330
1A
100
AcDbEntity
  8
OBJECT
100
AcDbBlockReference
  2
A$C6895fdcc
 10
51.97371261131047
 20
58.92872279694348
 30
0.0
  0
INSERT
  5
20A67
330
1A
100
AcDbEntity
  8
OBJECT
100
AcDbBlockReference
  2
A$C6895fdcc
 10
54.97371261131047
 20
57.42872279694347
 30
0.0
  0
INSERT
  5
20A68
330
1A
100
AcDbEntity
  8
OBJECT
100
AcDbBlockReference
  2
A$C6895fdcc
 10
51.97371261131047
 20
57.42872279694347
 30
0.0
  0
INSERT
  5
20A69
330
1A
100
AcDbEntity
  8
OBJECT
100
AcDbBlockReference
  2
A$C6895fdcc
 10
54.97371261131047
 20
55.92872279694347
 30
0.0
  0
INSERT
  5
20A6A
330
1A
100
AcDbEntity
  8
OBJECT
100
AcDbBlockReference
  2
A$C6895fdcc
 10
51.97371261131047
 20
55.92872279694347
 30
0.0
  0
INSERT
  5
20A6B
330
1A
100
AcDbEntity
  8
OBJECT
100
AcDbBlockReference
  2
A$C6895fdcc
 10
54.97371261131047
 20
54.42872279694348
 30
0.0
  0
INSERT
  5
20A6C
330
1A
100
AcDbEntity
  8
OBJECT
100
AcDbBlockReference
  2
A$C6895fdcc
 10
51.97371261131047
 20
54.42872279694348
 30
0.0
  0
INSERT
  5
20A6D
330
1A
100
AcDbEntity
  8
OBJECT
100
AcDbBlockReference
  2
A$C6895fdcc
 10
54.97371261131047
 20
52.92872279694347
 30
0.0
  0
INSERT
  5
20A6E
330
1A
100
AcDbEntity
  8
OBJECT
100
AcDbBlockReference
  2
A$C6895fdcc
 10
51.97371261131047
 20
52.92872279694347
 30
0.0
  0
INSERT
  5
20A6F
330
1A
100
AcDbEntity
  8
OBJECT
100
AcDbBlockReference
  2
A$C6895fdcc
 10
54.97371261131047
 20
51.42872279694348
 30
0.0
  0
INSERT
  5
20A70
330
1A
100
AcDbEntity
  8
OBJECT
100
AcDbBlockReference
  2
A$C6895fdcc
 10
51.97371261131047
 20
51.42872279694348
 30
0.0
  0
INSERT
  5
20A71
330
1A
100
AcDbEntity
  8
OBJECT
100
AcDbBlockReference
  2
A$C6895fdcc
 10
54.97371261131047
 20
49.92872279694347
 30
0.0
  0
INSERT
  5
20A72
330
1A
100
AcDbEntity
  8
OBJECT
100
AcDbBlockReference
  2
A$C6895fdcc
 10
51.97371261131047
 20
49.92872279694347
 30
0.0
  0
INSERT
  5
20A73
330
1A
100
AcDbEntity
  8
OBJECT
100
AcDbBlockReference
  2
A$C6895fdcc
 10
54.97371261131047
 20
48.42872279694347
 30
0.0
  0
INSERT
  5
20A74
330
1A
100
AcDbEntity
  8
OBJECT
100
AcDbBlockReference
  2
A$C6895fdcc
 10
51.97371261131047
 20
48.42872279694347
 30
0.0
  0
INSERT
  5
20A75
330
1A
100
AcDbEntity
  8
OBJECT
100
AcDbBlockReference
  2
A$C6895fdcc
 10
54.97371261131047
 20
46.92872279694348
 30
0.0
  0
INSERT
  5
20A76
330
1A
100
AcDbEntity
  8
OBJECT
100
AcDbBlockReference
  2
A$C6895fdcc
 10
51.97371261131047
 20
46.92872279694348
 30
0.0
  0
INSERT
  5
20A77
330
1A
100
AcDbEntity
  8
OBJECT
100
AcDbBlockReference
  2
A$C6895fdcc
 10
54.97371261131047
 20
45.42872279694347
 30
0.0
  0
INSERT
  5
20A78
330
1A
100
AcDbEntity
  8
OBJECT
100
AcDbBlockReference
  2
A$C6895fdcc
 10
51.97371261131047
 20
45.42872279694347
 30
0.0
  0
INSERT
  5
20A79
330
1A
100
AcDbEntity
  8
OBJECT
100
AcDbBlockReference
  2
A$C6895fdcc
 10
54.97371261131047
 20
43.92872279694347
 30
0.0
  0
INSERT
  5
20A7A
330
1A
100
AcDbEntity
  8
OBJECT
100
AcDbBlockReference
  2
A$C6895fdcc
 10
51.97371261131047
 20
43.92872279694347
 30
0.0
  0
INSERT
  5
20A7B
330
1A
100
AcDbEntity
  8
OBJECT
100
AcDbBlockReference
  2
A$C6895fdcc
 10
54.97371261131047
 20
42.42872279694347
 30
0.0
  0
INSERT
  5
20A7C
330
1A
100
AcDbEntity
  8
OBJECT
100
AcDbBlockReference
  2
A$C6895fdcc
 10
51.97371261131047
 20
42.42872279694347
 30
0.0
  0
INSERT
  5
20A7D
330
1A
100
AcDbEntity
  8
OBJECT
100
AcDbBlockReference
  2
A$C6895fdcc
 10
54.97371261131047
 20
40.92872279694347
 30
0.0
  0
INSERT
  5
20A7E
330
1A
100
AcDbEntity
  8
OBJECT
100
AcDbBlockReference
  2
A$C6895fdcc
 10
51.97371261131047
 20
40.92872279694347
 30
0.0
  0
INSERT
  5
20A7F
330
1A
100
AcDbEntity
  8
OBJECT
100
AcDbBlockReference
  2
A$C6895fdcc
 10
54.97371261131047
 20
39.42872279694348
 30
0.0
  0
INSERT
  5
20A80
330
1A
100
AcDbEntity
  8
OBJECT
100
AcDbBlockReference
  2
A$C6895fdcc
 10
51.97371261131047
 20
39.42872279694348
 30
0.0
  0
INSERT
  5
20A81
330
1A
100
AcDbEntity
  8
OBJECT
100
AcDbBlockReference
  2
A$C6895fdcc
 10
54.97371261131047
 20
37.92872279694348
 30
0.0
  0
INSERT
  5
20A82
330
1A
100
AcDbEntity
  8
OBJECT
100
AcDbBlockReference
  2
A$C6895fdcc
 10
51.97371261131047
 20
37.92872279694348
 30
0.0
  0
INSERT
  5
20A83
330
1A
100
AcDbEntity
  8
OBJECT
100
AcDbBlockReference
  2
A$C6895fdcc
 10
54.97371261131047
 20
36.42872279694348
 30
0.0
  0
INSERT
  5
20A84
330
1A
100
AcDbEntity
  8
OBJECT
100
AcDbBlockReference
  2
A$C6895fdcc
 10
51.97371261131047
 20
36.42872279694348
 30
0.0
  0
INSERT
  5
20A85
330
1A
100
AcDbEntity
  8
OBJECT
100
AcDbBlockReference
  2
A$C6895fdcc
 10
54.47371261131047
 20
35.67872279694348
 30
0.0
  0
INSERT
  5
20A86
330
1A
100
AcDbEntity
  8
OBJECT
100
AcDbBlockReference
  2
A$C6895fdcc
 10
52.47371261131047
 20
35.67872279694348
 30
0.0
  0
LINE
  5
20A87
330
1A
100
AcDbEntity
  8
diamonds
  6
PHANTOM2
 62
     2
 48
2.0
100
AcDbLine
 10
51.97380416405213
 20
35.48437338737313
 30
0.0
 11
51.97380416404485
 21
59.78881496480244
 31
0.0
  0
LINE
  5
20A88
330
1A
100
AcDbEntity
  8
diamonds
  6
PHANTOM2
 62
     2
 48
2.0
100
AcDbLine
 10
51.20812571986608
 20
58.91628303010293
 30
0.0
 11
55.73929950276215
 21
58.91628303010293
 31
0.0
  0
LINE
  5
20A89
330
1A
100
AcDbEntity
  8
diamonds
  6
PHANTOM2
 62
     2
 48
2.0
100
AcDbLine
 10
54.97380416405213
 20
35.48437338737313
 30
0.0
 11
54.97380416404485
 21
59.78881496480244
 31
0.0
  0
LINE
  5
20A8A
330
1A
100
AcDbEntity
  8
diamonds
  6
PHANTOM2
 62
     2
 48
2.0
100
AcDbLine
 10
51.20812571986608
 20
35.68572293506986
 30
0.0
 11
55.73929950276215
 21
35.68572293506986
 31
0.0
  0
LINE
  5
20A8B
330
1A
100
AcDbEntity
  8
ELEVATION
100
AcDbLine
 10
58.20811812143801
 20
33.99122482536223
 30
0.0
 11
58.70808758895873
 21
33.99122482536223
 31
0.0
  0
LINE
  5
20A8C
330
1A
100
AcDbEntity
  8
ELEVATION
100
AcDbLine
 10
66.20808718662738
 20
33.99122482536223
 30
0.0
 11
66.70812531869888
 21
33.99122482536223
 31
0.0
  0
LINE
  5
20A8D
330
1A
100
AcDbEntity
  8
ELEVATION
100
AcDbLine
 10
66.20808718662738
 20
102.6162227801778
 30
0.0
 11
66.70812531869888
 21
102.6162227801778
 31
0.0
  0
LINE
  5
20A8E
330
1A
100
AcDbEntity
  8
ELEVATION
100
AcDbLine
 10
58.20811812143801
 20
102.6162227801778
 30
0.0
 11
58.70808758895873
 21
102.6162227801778
 31
0.0
  0
ARC
  5
20A8F
330
1A
100
AcDbEntity
  8
ELEVATION
100
AcDbCircle
 10
58.70815625350951
 20
33.74121720342009
 30
0.0
 40
0.25
100
AcDbArc
 50
0.0
 51
89.99998201364064
  0
ARC
  5
20A90
330
1A
100
AcDbEntity
  8
ELEVATION
100
AcDbCircle
 10
58.2081867859888
 20
33.74121720342009
 30
0.0
 40
0.25
100
AcDbArc
 50
89.99998201364064
 51
180.0000186693157
  0
ARC
  5
20A91
330
1A
100
AcDbEntity
  8
ELEVATION
100
AcDbCircle
 10
66.70814820688247
 20
33.74121720342009
 30
0.0
 40
0.25
100
AcDbArc
 50
0.0
 51
89.99998201364064
  0
ARC
  5
20A92
330
1A
100
AcDbEntity
  8
ELEVATION
100
AcDbCircle
 10
66.20815585117816
 20
33.74121720342009
 30
0.0
 40
0.25
100
AcDbArc
 50
89.99998201364064
 51
180.0000186693157
  0
ARC
  5
20A93
330
1A
100
AcDbEntity
  8
ELEVATION
100
AcDbCircle
 10
66.70814820688247
 20
102.8662532903054
 30
0.0
 40
0.25
100
AcDbArc
 50
270.0000179859425
 51
0.0
  0
ARC
  5
20A94
330
1A
100
AcDbEntity
  8
ELEVATION
100
AcDbCircle
 10
66.20815585117816
 20
102.8662532903054
 30
0.0
 40
0.25
100
AcDbArc
 50
180.0000223118192
 51
270.0000589670775
  0
ARC
  5
20A95
330
1A
100
AcDbEntity
  8
ELEVATION
100
AcDbCircle
 10
58.70815625350951
 20
102.8662532903054
 30
0.0
 40
0.25
100
AcDbArc
 50
270.0000179859425
 51
0.0
  0
ARC
  5
20A96
330
1A
100
AcDbEntity
  8
ELEVATION
100
AcDbCircle
 10
58.2081867859888
 20
102.8662532903054
 30
0.0
 40
0.25
100
AcDbArc
 50
180.0000223118192
 51
270.0000589670775
  0
LWPOLYLINE
  5
20A97
330
1A
100
AcDbEntity
  8
ELEVATION
100
AcDbPolyline
 90
        4
 70
     1
 43
0.0
 10
57.95808761131048
 20
32.30372487565364
 10
66.95808761131047
 20
32.30372487565364
 10
66.95808761131047
 20
104.3037248756536
 10
57.95808761131048
 20
104.3037248756536
  0
LWPOLYLINE
  5
20A98
330
1A
100
AcDbEntity
  8
ELEVATION
100
AcDbPolyline
 90
        4
 70
     1
 43
0.0
 10
58.95808761131047
 20
33.30372487565365
 10
65.95808761131047
 20
33.30372487565365
 10
65.95808761131047
 20
103.3037248756536
 10
58.95808761131047
 20
103.3037248756536
  0
LINE
  5
20A99
330
1A
100
AcDbEntity
  8
ELEVATION
100
AcDbLine
 10
59.03621261131047
 20
33.42872487565364
 30
0.0
 11
65.91121261131047
 21
33.42872487565364
 31
0.0
  0
LINE
  5
20A9A
330
1A
100
AcDbEntity
  8
ELEVATION
100
AcDbLine
 10
65.91121261131047
 20
33.42872487565364
 30
0.0
 11
65.91121261131047
 21
103.2412248756536
 31
0.0
  0
LINE
  5
20A9B
330
1A
100
AcDbEntity
  8
ELEVATION
100
AcDbLine
 10
65.91121261131047
 20
103.2412248756536
 30
0.0
 11
59.03621261131047
 21
103.2412248756536
 31
0.0
  0
LINE
  5
20A9C
330
1A
100
AcDbEntity
  8
ELEVATION
100
AcDbLine
 10
59.03621261131047
 20
103.2412248756536
 30
0.0
 11
59.03621261131047
 21
33.42872487565364
 31
0.0
  0
INSERT
  5
20A9D
330
1A
100
AcDbEntity
  8
OBJECT
100
AcDbBlockReference
  2
A$C0da8e90c
 10
61.91735359083395
 20
63.25710214193714
 30
0.0
  0
INSERT
  5
20A9E
330
1A
100
AcDbEntity
  8
OBJECT
100
AcDbBlockReference
  2
A$C6895fdcc
 10
63.97371261131048
 20
100.2412248756536
 30
0.0
  0
INSERT
  5
20A9F
330
1A
100
AcDbEntity
  8
OBJECT
100
AcDbBlockReference
  2
A$C6895fdcc
 10
63.97371261131048
 20
98.74122487565365
 30
0.0
  0
INSERT
  5
20AA0
330
1A
100
AcDbEntity
  8
OBJECT
100
AcDbBlockReference
  2
A$C6895fdcc
 10
60.97371261131048
 20
98.74122487565365
 30
0.0
  0
INSERT
  5
20AA1
330
1A
100
AcDbEntity
  8
OBJECT
100
AcDbBlockReference
  2
A$C6895fdcc
 10
63.97371261131048
 20
97.24122487565365
 30
0.0
  0
INSERT
  5
20AA2
330
1A
100
AcDbEntity
  8
OBJECT
100
AcDbBlockReference
  2
A$C6895fdcc
 10
60.97371261131048
 20
97.24122487565365
 30
0.0
  0
INSERT
  5
20AA3
330
1A
100
AcDbEntity
  8
OBJECT
100
AcDbBlockReference
  2
A$C6895fdcc
 10
63.97371261131048
 20
95.74122487565364
 30
0.0
  0
INSERT
  5
20AA4
330
1A
100
AcDbEntity
  8
OBJECT
100
AcDbBlockReference
  2
A$C6895fdcc
 10
60.97371261131048
 20
95.74122487565364
 30
0.0
  0
INSERT
  5
20AA5
330
1A
100
AcDbEntity
  8
OBJECT
100
AcDbBlockReference
  2
A$C6895fdcc
 10
63.97371261131048
 20
94.24122487565364
 30
0.0
  0
INSERT
  5
20AA6
330
1A
100
AcDbEntity
  8
OBJECT
100
AcDbBlockReference
  2
A$C6895fdcc
 10
60.97371261131048
 20
94.24122487565364
 30
0.0
  0
INSERT
  5
20AA7
330
1A
100
AcDbEntity
  8
OBJECT
100
AcDbBlockReference
  2
A$C6895fdcc
 10
63.97371261131048
 20
92.74122487565364
 30
0.0
  0
INSERT
  5
20AA8
330
1A
100
AcDbEntity
  8
OBJECT
100
AcDbBlockReference
  2
A$C6895fdcc
 10
60.97371261131048
 20
92.74122487565364
 30
0.0
  0
INSERT
  5
20AA9
330
1A
100
AcDbEntity
  8
OBJECT
100
AcDbBlockReference
  2
A$C6895fdcc
 10
63.97371261131048
 20
91.24122487565363
 30
0.0
  0
INSERT
  5
20AAA
330
1A
100
AcDbEntity
  8
OBJECT
100
AcDbBlockReference
  2
A$C6895fdcc
 10
60.97371261131048
 20
91.24122487565363
 30
0.0
  0
INSERT
  5
20AAB
330
1A
100
AcDbEntity
  8
OBJECT
100
AcDbBlockReference
  2
A$C6895fdcc
 10
63.97371261131048
 20
89.74122487565365
 30
0.0
  0
INSERT
  5
20AAC
330
1A
100
AcDbEntity
  8
OBJECT
100
AcDbBlockReference
  2
A$C6895fdcc
 10
60.97371261131048
 20
89.74122487565365
 30
0.0
  0
INSERT
  5
20AAD
330
1A
100
AcDbEntity
  8
OBJECT
100
AcDbBlockReference
  2
A$C6895fdcc
 10
63.97371261131048
 20
88.24122487565364
 30
0.0
  0
INSERT
  5
20AAE
330
1A
100
AcDbEntity
  8
OBJECT
100
AcDbBlockReference
  2
A$C6895fdcc
 10
60.97371261131048
 20
88.24122487565364
 30
0.0
  0
INSERT
  5
20AAF
330
1A
100
AcDbEntity
  8
OBJECT
100
AcDbBlockReference
  2
A$C6895fdcc
 10
63.97371261131048
 20
86.74122487565364
 30
0.0
  0
INSERT
  5
20AB0
330
1A
100
AcDbEntity
  8
OBJECT
100
AcDbBlockReference
  2
A$C6895fdcc
 10
60.97371261131048
 20
86.74122487565364
 30
0.0
  0
INSERT
  5
20AB1
330
1A
100
AcDbEntity
  8
OBJECT
100
AcDbBlockReference
  2
A$C6895fdcc
 10
63.97371261131048
 20
85.24122487565364
 30
0.0
  0
INSERT
  5
20AB2
330
1A
100
AcDbEntity
  8
OBJECT
100
AcDbBlockReference
  2
A$C6895fdcc
 10
60.97371261131048
 20
85.24122487565364
 30
0.0
  0
INSERT
  5
20AB3
330
1A
100
AcDbEntity
  8
OBJECT
100
AcDbBlockReference
  2
A$C6895fdcc
 10
63.97371261131048
 20
71.74122487565364
 30
0.0
  0
INSERT
  5
20AB4
330
1A
100
AcDbEntity
  8
OBJECT
100
AcDbBlockReference
  2
A$C6895fdcc
 10
60.97371261131048
 20
71.74122487565364
 30
0.0
  0
INSERT
  5
20AB5
330
1A
100
AcDbEntity
  8
OBJECT
100
AcDbBlockReference
  2
A$C6895fdcc
 10
63.47371261131048
 20
70.99122487565364
 30
0.0
  0
INSERT
  5
20AB6
330
1A
100
AcDbEntity
  8
OBJECT
100
AcDbBlockReference
  2
A$C6895fdcc
 10
61.47371261131048
 20
70.99122487565364
 30
0.0
  0
CIRCLE
  5
20AB7
330
1A
100
AcDbEntity
  8
ELEVATION
100
AcDbCircle
 10
63.55182249280187
 20
102.053770372624
 30
0.0
 40
0.0625000100000004
  0
CIRCLE
  5
20AB8
330
1A
100
AcDbEntity
  8
ELEVATION
100
AcDbCircle
 10
61.36430694949376
 20
102.053770372624
 30
0.0
 40
0.0625000100000004
  0
LINE
  5
20AB9
330
1A
100
AcDbEntity
  8
0 OBJECT BORDER
100
AcDbLine
 10
61.09275479260396
 20
101.5687703338135
 30
0.0
 11
63.82335928123939
 21
101.5687703338135
 31
0.0
  0
ARC
  5
20ABA
330
1A
100
AcDbEntity
  8
0 OBJECT BORDER
100
AcDbCircle
 10
61.31431678491208
 20
102.064270373472
 30
0.0
 40
0.187500015
100
AcDbArc
 50
104.3102750721047
 51
169.6338360115885
  0
ARC
  5
20ABB
330
1A
100
AcDbEntity
  8
0 OBJECT BORDER
100
AcDbCircle
 10
63.60179728904768
 20
102.064270373472
 30
0.0
 40
0.187500015
100
AcDbArc
 50
10.36616398841153
 51
75.68972492789528
  0
LINE
  5
20ABC
330
1A
100
AcDbEntity
  8
0 OBJECT BORDER
100
AcDbLine
 10
61.05486731761629
 20
101.6879485662011
 30
0.0
 11
61.12987716292991
 21
102.0980088010347
 31
0.0
  0
ARC
  5
20ABD
330
1A
100
AcDbEntity
  8
0 OBJECT BORDER
100
AcDbCircle
 10
61.23930693948205
 20
101.6542101386385
 30
0.0
 40
0.187500015
100
AcDbArc
 50
169.6338360115885
 51
200.2926116435396
  0
ARC
  5
20ABE
330
1A
100
AcDbEntity
  8
0 OBJECT BORDER
100
AcDbCircle
 10
61.09275479260396
 20
101.6000203363164
 30
0.0
 40
0.0312500025
100
AcDbArc
 50
200.2926116435396
 51
270.0
  0
LINE
  5
20ABF
330
1A
100
AcDbEntity
  8
0 OBJECT BORDER
100
AcDbLine
 10
63.86124675645987
 20
101.6879485662011
 30
0.0
 11
63.78623691102984
 21
102.0980088010347
 31
0.0
  0
ARC
  5
20AC0
330
1A
100
AcDbEntity
  8
0 OBJECT BORDER
100
AcDbCircle
 10
63.67680713459413
 20
101.6542101386385
 30
0.0
 40
0.187500015
100
AcDbArc
 50
339.7073883564605
 51
10.36616398841153
  0
ARC
  5
20AC1
330
1A
100
AcDbEntity
  8
0 OBJECT BORDER
100
AcDbCircle
 10
63.82335928123939
 20
101.6000203363164
 30
0.0
 40
0.0312500025
100
AcDbArc
 50
270.0
 51
339.7073883564605
  0
LINE
  5
20AC2
330
1A
100
AcDbEntity
  8
0 OBJECT BORDER
100
AcDbLine
 10
62.36536723486643
 20
102.525884693061
 30
0.0
 11
61.26797188370983
 21
102.245952529347
 31
0.0
  0
LINE
  5
20AC3
330
1A
100
AcDbEntity
  8
0 OBJECT BORDER
100
AcDbLine
 10
62.55074683920975
 20
102.525884693061
 30
0.0
 11
63.64814219024992
 21
102.245952529347
 31
0.0
  0
ARC
  5
20AC4
330
1A
100
AcDbEntity
  8
0 OBJECT BORDER
100
AcDbCircle
 10
62.45805703692167
 20
102.1625203813109
 30
0.0
 40
0.37500003
100
AcDbArc
 50
75.68972492789528
 51
104.3102750721047
  0
LINE
  5
20AC5
330
1A
100
AcDbEntity
  8
diamonds
  6
PHANTOM2
 62
     2
 48
2.0
100
AcDbLine
 10
60.20812571986607
 20
70.99122488407738
 30
0.0
 11
64.73929950276215
 21
70.99122488407738
 31
0.0
  0
LINE
  5
20AC6
330
1A
100
AcDbEntity
  8
diamonds
  6
PHANTOM2
 62
     2
 48
2.0
100
AcDbLine
 10
60.97380416406668
 20
70.79687546608329
 30
0.0
 11
60.97380416404485
 21
101.1013170435126
 31
0.0
  0
LINE
  5
20AC7
330
1A
100
AcDbEntity
  8
diamonds
  6
PHANTOM2
 62
     2
 48
2.0
100
AcDbLine
 10
60.20812571986607
 20
100.2287851088131
 30
0.0
 11
64.73929950276215
 21
100.2287851088131
 31
0.0
  0
LINE
  5
20AC8
330
1A
100
AcDbEntity
  8
diamonds
  6
PHANTOM2
 62
     2
 48
2.0
100
AcDbLine
 10
63.97380416406668
 20
70.79687546608329
 30
0.0
 11
63.97380416404485
 21
101.1013170435126
 31
0.0
  0
INSERT
  5
20AC9
330
1A
100
AcDbEntity
  8
OBJECT
100
AcDbBlockReference
  2
A$C6895fdcc
 10
60.97371242132067
 20
100.2412248756536
 30
0.0
  0
INSERT
  5
20ACA
330
1A
100
AcDbEntity
  8
OBJECT
100
AcDbBlockReference
  2
A$C6895fdcc
 10
63.97371261131048
 20
83.74122487565363
 30
0.0
  0
INSERT
  5
20ACB
330
1A
100
AcDbEntity
  8
OBJECT
100
AcDbBlockReference
  2
A$C6895fdcc
 10
60.97371261131048
 20
83.74122487565363
 30
0.0
  0
INSERT
  5
20ACC
330
1A
100
AcDbEntity
  8
OBJECT
100
AcDbBlockReference
  2
A$C6895fdcc
 10
63.97371261131048
 20
82.24122487565365
 30
0.0
  0
INSERT
  5
20ACD
330
1A
100
AcDbEntity
  8
OBJECT
100
AcDbBlockReference
  2
A$C6895fdcc
 10
60.97371261131048
 20
82.24122487565365
 30
0.0
  0
INSERT
  5
20ACE
330
1A
100
AcDbEntity
  8
OBJECT
100
AcDbBlockReference
  2
A$C6895fdcc
 10
63.97371261131048
 20
80.74122487565364
 30
0.0
  0
INSERT
  5
20ACF
330
1A
100
AcDbEntity
  8
OBJECT
100
AcDbBlockReference
  2
A$C6895fdcc
 10
60.97371261131048
 20
80.74122487565364
 30
0.0
  0
INSERT
  5
20AD0
330
1A
100
AcDbEntity
  8
OBJECT
100
AcDbBlockReference
  2
A$C6895fdcc
 10
63.97371261131048
 20
79.24122487565364
 30
0.0
  0
INSERT
  5
20AD1
330
1A
100
AcDbEntity
  8
OBJECT
100
AcDbBlockReference
  2
A$C6895fdcc
 10
60.97371261131048
 20
79.24122487565364
 30
0.0
  0
INSERT
  5
20AD2
330
1A
100
AcDbEntity
  8
OBJECT
100
AcDbBlockReference
  2
A$C6895fdcc
 10
63.97371261131048
 20
77.74122487565364
 30
0.0
  0
INSERT
  5
20AD3
330
1A
100
AcDbEntity
  8
OBJECT
100
AcDbBlockReference
  2
A$C6895fdcc
 10
60.97371261131048
 20
77.74122487565364
 30
0.0
  0
INSERT
  5
20AD4
330
1A
100
AcDbEntity
  8
OBJECT
100
AcDbBlockReference
  2
A$C6895fdcc
 10
63.97371261131048
 20
76.24122487565364
 30
0.0
  0
INSERT
  5
20AD5
330
1A
100
AcDbEntity
  8
OBJECT
100
AcDbBlockReference
  2
A$C6895fdcc
 10
60.97371261131048
 20
76.24122487565364
 30
0.0
  0
INSERT
  5
20AD6
330
1A
100
AcDbEntity
  8
OBJECT
100
AcDbBlockReference
  2
A$C6895fdcc
 10
63.97371261131048
 20
74.74122487565364
 30
0.0
  0
INSERT
  5
20AD7
330
1A
100
AcDbEntity
  8
OBJECT
100
AcDbBlockReference
  2
A$C6895fdcc
 10
60.97371261131048
 20
74.74122487565364
 30
0.0
  0
INSERT
  5
20AD8
330
1A
100
AcDbEntity
  8
OBJECT
100
AcDbBlockReference
  2
A$C6895fdcc
 10
63.97371261131048
 20
73.24122487565364
 30
0.0
  0
INSERT
  5
20AD9
330
1A
100
AcDbEntity
  8
OBJECT
100
AcDbBlockReference
  2
A$C6895fdcc
 10
60.97371261131048
 20
73.24122487565364
 30
0.0
  0
INSERT
  5
20ADA
330
1A
100
AcDbEntity
  8
OBJECT
100
AcDbBlockReference
  2
A$C6895fdcc
 10
63.97371261131048
 20
58.92872279694348
 30
0.0
  0
INSERT
  5
20ADB
330
1A
100
AcDbEntity
  8
OBJECT
100
AcDbBlockReference
  2
A$C6895fdcc
 10
60.97371261131048
 20
58.92872279694348
 30
0.0
  0
INSERT
  5
20ADC
330
1A
100
AcDbEntity
  8
OBJECT
100
AcDbBlockReference
  2
A$C6895fdcc
 10
63.97371261131048
 20
57.42872279694347
 30
0.0
  0
INSERT
  5
20ADD
330
1A
100
AcDbEntity
  8
OBJECT
100
AcDbBlockReference
  2
A$C6895fdcc
 10
60.97371261131048
 20
57.42872279694347
 30
0.0
  0
INSERT
  5
20ADE
330
1A
100
AcDbEntity
  8
OBJECT
100
AcDbBlockReference
  2
A$C6895fdcc
 10
63.97371261131048
 20
55.92872279694347
 30
0.0
  0
INSERT
  5
20ADF
330
1A
100
AcDbEntity
  8
OBJECT
100
AcDbBlockReference
  2
A$C6895fdcc
 10
60.97371261131048
 20
55.92872279694347
 30
0.0
  0
INSERT
  5
20AE0
330
1A
100
AcDbEntity
  8
OBJECT
100
AcDbBlockReference
  2
A$C6895fdcc
 10
63.97371261131048
 20
54.42872279694348
 30
0.0
  0
INSERT
  5
20AE1
330
1A
100
AcDbEntity
  8
OBJECT
100
AcDbBlockReference
  2
A$C6895fdcc
 10
60.97371261131048
 20
54.42872279694348
 30
0.0
  0
INSERT
  5
20AE2
330
1A
100
AcDbEntity
  8
OBJECT
100
AcDbBlockReference
  2
A$C6895fdcc
 10
63.97371261131048
 20
52.92872279694347
 30
0.0
  0
INSERT
  5
20AE3
330
1A
100
AcDbEntity
  8
OBJECT
100
AcDbBlockReference
  2
A$C6895fdcc
 10
60.97371261131048
 20
52.92872279694347
 30
0.0
  0
INSERT
  5
20AE4
330
1A
100
AcDbEntity
  8
OBJECT
100
AcDbBlockReference
  2
A$C6895fdcc
 10
63.97371261131048
 20
51.42872279694348
 30
0.0
  0
INSERT
  5
20AE5
330
1A
100
AcDbEntity
  8
OBJECT
100
AcDbBlockReference
  2
A$C6895fdcc
 10
60.97371261131048
 20
51.42872279694348
 30
0.0
  0
INSERT
  5
20AE6
330
1A
100
AcDbEntity
  8
OBJECT
100
AcDbBlockReference
  2
A$C6895fdcc
 10
63.97371261131048
 20
49.92872279694347
 30
0.0
  0
INSERT
  5
20AE7
330
1A
100
AcDbEntity
  8
OBJECT
100
AcDbBlockReference
  2
A$C6895fdcc
 10
60.97371261131048
 20
49.92872279694347
 30
0.0
  0
INSERT
  5
20AE8
330
1A
100
AcDbEntity
  8
OBJECT
100
AcDbBlockReference
  2
A$C6895fdcc
 10
63.97371261131048
 20
48.42872279694347
 30
0.0
  0
INSERT
  5
20AE9
330
1A
100
AcDbEntity
  8
OBJECT
100
AcDbBlockReference
  2
A$C6895fdcc
 10
60.97371261131048
 20
48.42872279694347
 30
0.0
  0
INSERT
  5
20AEA
330
1A
100
AcDbEntity
  8
OBJECT
100
AcDbBlockReference
  2
A$C6895fdcc
 10
63.97371261131048
 20
46.92872279694348
 30
0.0
  0
INSERT
  5
20AEB
330
1A
100
AcDbEntity
  8
OBJECT
100
AcDbBlockReference
  2
A$C6895fdcc
 10
60.97371261131048
 20
46.92872279694348
 30
0.0
  0
INSERT
  5
20AEC
330
1A
100
AcDbEntity
  8
OBJECT
100
AcDbBlockReference
  2
A$C6895fdcc
 10
63.97371261131048
 20
45.42872279694347
 30
0.0
  0
INSERT
  5
20AED
330
1A
100
AcDbEntity
  8
OBJECT
100
AcDbBlockReference
  2
A$C6895fdcc
 10
60.97371261131048
 20
45.42872279694347
 30
0.0
  0
INSERT
  5
20AEE
330
1A
100
AcDbEntity
  8
OBJECT
100
AcDbBlockReference
  2
A$C6895fdcc
 10
63.97371261131048
 20
43.92872279694347
 30
0.0
  0
INSERT
  5
20AEF
330
1A
100
AcDbEntity
  8
OBJECT
100
AcDbBlockReference
  2
A$C6895fdcc
 10
60.97371261131048
 20
43.92872279694347
 30
0.0
  0
INSERT
  5
20AF0
330
1A
100
AcDbEntity
  8
OBJECT
100
AcDbBlockReference
  2
A$C6895fdcc
 10
63.97371261131048
 20
42.42872279694347
 30
0.0
  0
INSERT
  5
20AF1
330
1A
100
AcDbEntity
  8
OBJECT
100
AcDbBlockReference
  2
A$C6895fdcc
 10
60.97371261131048
 20
42.42872279694347
 30
0.0
  0
INSERT
  5
20AF2
330
1A
100
AcDbEntity
  8
OBJECT
100
AcDbBlockReference
  2
A$C6895fdcc
 10
63.97371261131048
 20
40.92872279694347
 30
0.0
  0
INSERT
  5
20AF3
330
1A
100
AcDbEntity
  8
OBJECT
100
AcDbBlockReference
  2
A$C6895fdcc
 10
60.97371261131048
 20
40.92872279694347
 30
0.0
  0
INSERT
  5
20AF4
330
1A
100
AcDbEntity
  8
OBJECT
100
AcDbBlockReference
  2
A$C6895fdcc
 10
63.97371261131048
 20
39.42872279694348
 30
0.0
  0
INSERT
  5
20AF5
330
1A
100
AcDbEntity
  8
OBJECT
100
AcDbBlockReference
  2
A$C6895fdcc
 10
60.97371261131048
 20
39.42872279694348
 30
0.0
  0
INSERT
  5
20AF6
330
1A
100
AcDbEntity
  8
OBJECT
100
AcDbBlockReference
  2
A$C6895fdcc
 10
63.97371261131048
 20
37.92872279694348
 30
0.0
  0
INSERT
  5
20AF7
330
1A
100
AcDbEntity
  8
OBJECT
100
AcDbBlockReference
  2
A$C6895fdcc
 10
60.97371261131048
 20
37.92872279694348
 30
0.0
  0
INSERT
  5
20AF8
330
1A
100
AcDbEntity
  8
OBJECT
100
AcDbBlockReference
  2
A$C6895fdcc
 10
63.97371261131048
 20
36.42872279694348
 30
0.0
  0
INSERT
  5
20AF9
330
1A
100
AcDbEntity
  8
OBJECT
100
AcDbBlockReference
  2
A$C6895fdcc
 10
60.97371261131048
 20
36.42872279694348
 30
0.0
  0
INSERT
  5
20AFA
330
1A
100
AcDbEntity
  8
OBJECT
100
AcDbBlockReference
  2
A$C6895fdcc
 10
63.47371261131048
 20
35.67872279694348
 30
0.0
  0
INSERT
  5
20AFB
330
1A
100
AcDbEntity
  8
OBJECT
100
AcDbBlockReference
  2
A$C6895fdcc
 10
61.47371261131048
 20
35.67872279694348
 30
0.0
  0
LINE
  5
20AFC
330
1A
100
AcDbEntity
  8
diamonds
  6
PHANTOM2
 62
     2
 48
2.0
100
AcDbLine
 10
60.97380416405212
 20
35.48437338737313
 30
0.0
 11
60.97380416404485
 21
59.78881496480244
 31
0.0
  0
LINE
  5
20AFD
330
1A
100
AcDbEntity
  8
diamonds
  6
PHANTOM2
 62
     2
 48
2.0
100
AcDbLine
 10
60.20812571986607
 20
58.91628303010293
 30
0.0
 11
64.73929950276215
 21
58.91628303010293
 31
0.0
  0
LINE
  5
20AFE
330
1A
100
AcDbEntity
  8
diamonds
  6
PHANTOM2
 62
     2
 48
2.0
100
AcDbLine
 10
63.97380416405212
 20
35.48437338737313
 30
0.0
 11
63.97380416404485
 21
59.78881496480244
 31
0.0
  0
LINE
  5
20AFF
330
1A
100
AcDbEntity
  8
diamonds
  6
PHANTOM2
 62
     2
 48
2.0
100
AcDbLine
 10
60.20812571986607
 20
35.68572293506986
 30
0.0
 11
64.73929950276215
 21
35.68572293506986
 31
0.0
  0
LINE
  5
20B00
330
1A
100
AcDbEntity
  8
ELEVATION
100
AcDbLine
 10
67.20811812143802
 20
33.99122482536223
 30
0.0
 11
67.70808758895873
 21
33.99122482536223
 31
0.0
  0
LINE
  5
20B01
330
1A
100
AcDbEntity
  8
ELEVATION
100
AcDbLine
 10
75.20808718662738
 20
33.99122482536223
 30
0.0
 11
75.70812531869887
 21
33.99122482536223
 31
0.0
  0
LINE
  5
20B02
330
1A
100
AcDbEntity
  8
ELEVATION
100
AcDbLine
 10
75.20808718662738
 20
102.6162227801778
 30
0.0
 11
75.70812531869887
 21
102.6162227801778
 31
0.0
  0
LINE
  5
20B03
330
1A
100
AcDbEntity
  8
ELEVATION
100
AcDbLine
 10
67.20811812143802
 20
102.6162227801778
 30
0.0
 11
67.70808758895873
 21
102.6162227801778
 31
0.0
  0
ARC
  5
20B04
330
1A
100
AcDbEntity
  8
ELEVATION
100
AcDbCircle
 10
67.70815625350952
 20
33.74121720342009
 30
0.0
 40
0.25
100
AcDbArc
 50
0.0
 51
89.99998201364064
  0
ARC
  5
20B05
330
1A
100
AcDbEntity
  8
ELEVATION
100
AcDbCircle
 10
67.2081867859888
 20
33.74121720342009
 30
0.0
 40
0.25
100
AcDbArc
 50
89.99998201364064
 51
180.0000186693157
  0
ARC
  5
20B06
330
1A
100
AcDbEntity
  8
ELEVATION
100
AcDbCircle
 10
75.70814820688247
 20
33.74121720342009
 30
0.0
 40
0.25
100
AcDbArc
 50
0.0
 51
89.99998201364064
  0
ARC
  5
20B07
330
1A
100
AcDbEntity
  8
ELEVATION
100
AcDbCircle
 10
75.20815585117816
 20
33.74121720342009
 30
0.0
 40
0.25
100
AcDbArc
 50
89.99998201364064
 51
180.0000186693157
  0
ARC
  5
20B08
330
1A
100
AcDbEntity
  8
ELEVATION
100
AcDbCircle
 10
75.70814820688247
 20
102.8662532903054
 30
0.0
 40
0.25
100
AcDbArc
 50
270.0000179859425
 51
0.0
  0
ARC
  5
20B09
330
1A
100
AcDbEntity
  8
ELEVATION
100
AcDbCircle
 10
75.20815585117816
 20
102.8662532903054
 30
0.0
 40
0.25
100
AcDbArc
 50
180.0000223118192
 51
270.0000589670775
  0
ARC
  5
20B0A
330
1A
100
AcDbEntity
  8
ELEVATION
100
AcDbCircle
 10
67.70815625350952
 20
102.8662532903054
 30
0.0
 40
0.25
100
AcDbArc
 50
270.0000179859425
 51
0.0
  0
ARC
  5
20B0B
330
1A
100
AcDbEntity
  8
ELEVATION
100
AcDbCircle
 10
67.2081867859888
 20
102.8662532903054
 30
0.0
 40
0.25
100
AcDbArc
 50
180.0000223118192
 51
270.0000589670775
  0
LWPOLYLINE
  5
20B0C
330
1A
100
AcDbEntity
  8
ELEVATION
100
AcDbPolyline
 90
        4
 70
     1
 43
0.0
 10
66.95808761131047
 20
32.30372487565364
 10
75.95808761131047
 20
32.30372487565364
 10
75.95808761131047
 20
104.3037248756536
 10
66.95808761131047
 20
104.3037248756536
  0
LWPOLYLINE
  5
20B0D
330
1A
100
AcDbEntity
  8
ELEVATION
100
AcDbPolyline
 90
        4
 70
     1
 43
0.0
 10
67.95808761131048
 20
33.30372487565365
 10
74.95808761131048
 20
33.30372487565365
 10
74.95808761131048
 20
103.3037248756536
 10
67.95808761131048
 20
103.3037248756536
  0
LINE
  5
20B0E
330
1A
100
AcDbEntity
  8
top
100
AcDbLine
 10
74.95808761131048
 20
92.30372399567022
 30
0.0
 11
67.95808761131048
 21
92.30372399567022
 31
0.0
  0
LINE
  5
20B0F
330
1A
100
AcDbEntity
  8
top
100
AcDbLine
 10
74.95808761131048
 20
91.30532444563323
 30
0.0
 11
67.95808761131048
 21
91.30532444563323
 31
0.0
  0
LINE
  5
20B10
330
1A
100
AcDbEntity
  8
ELEV HIDDEN
100
AcDbLine
 10
75.76344636972499
 20
90.50160590269115
 30
0.0
 11
75.95799592447292
 21
90.50160590269115
 31
0.0
  0
LINE
  5
20B11
330
1A
100
AcDbEntity
  8
ELEV HIDDEN
100
AcDbLine
 10
75.76349214609217
 20
88.83543773945531
 30
0.0
 11
75.76349214609217
 21
90.50156012632397
 31
0.0
  0
LINE
  5
20B12
330
1A
100
AcDbEntity
  8
ELEV HIDDEN
100
AcDbLine
 10
75.63110689612949
 20
88.30841443973076
 30
0.0
 11
75.63110689612949
 21
88.6865501096163
 31
0.0
  0
LINE
  5
20B13
330
1A
100
AcDbEntity
  8
ELEVATION
100
AcDbLine
 10
73.79832496304152
 20
88.73089565121336
 30
0.0
 11
74.02297739792993
 21
88.76252201628267
 31
0.0
  0
LINE
  5
20B14
330
1A
100
AcDbEntity
  8
ELEVATION
100
AcDbLine
 10
74.06003228645568
 20
88.50004920783794
 30
0.0
 11
74.13557648457208
 21
88.14920345221436
 31
0.0
  0
LINE
  5
20B15
330
1A
100
AcDbEntity
  8
ELEVATION
100
AcDbLine
 10
73.8353378314714
 20
88.46844288605643
 30
0.0
 11
73.91354081780446
 21
88.10290485222504
 31
0.0
  0
LINE
  5
20B16
330
1A
100
AcDbEntity
  8
ELEVATION
100
AcDbLine
 10
71.34456222407607
 20
87.43875504182142
 30
0.0
 11
71.34456222407607
 21
88.46849439101607
 31
0.0
  0
LINE
  5
20B17
330
1A
100
AcDbEntity
  8
ELEVATION
100
AcDbLine
 10
71.57142989309068
 20
87.43875504182142
 30
0.0
 11
71.57142989309068
 21
88.46849439101607
 31
0.0
  0
LINE
  5
20B18
330
1A
100
AcDbEntity
  8
ELEVATION
100
AcDbLine
 10
71.23103683683439
 20
90.50160590269115
 30
0.0
 11
71.68490950397245
 21
90.50160590269115
 31
0.0
  0
LINE
  5
20B19
330
1A
100
AcDbEntity
  8
ELEVATION
100
AcDbLine
 10
71.2310826131943
 20
88.86308666441255
 30
0.0
 11
71.2310826131943
 21
90.50156012632397
 31
0.0
  0
LINE
  5
20B1A
330
1A
100
AcDbEntity
  8
ELEVATION
100
AcDbLine
 10
71.68490950397245
 20
88.87638469868397
 30
0.0
 11
71.68490950397245
 21
90.50156012632397
 31
0.0
  0
ARC
  5
20B1B
330
1A
100
AcDbEntity
  8
ELEV HIDDEN
100
AcDbCircle
 10
75.61229280977568
 20
88.83669658951658
 30
0.0
 40
0.1512499853596096
100
AcDbArc
 50
277.1790454074948
 51
0.4476574283442726
  0
ARC
  5
20B1C
330
1A
100
AcDbEntity
  8
ELEV HIDDEN
100
AcDbCircle
 10
74.8749271091001
 20
88.30848310428155
 30
0.0
 40
0.9831249718926855
100
AcDbArc
 50
274.8505451271129
 51
359.9999521886758
  0
ARC
  5
20B1D
330
1A
100
AcDbEntity
  8
ELEV HIDDEN
100
AcDbCircle
 10
74.8749271091001
 20
88.30848310428155
 30
0.0
 40
0.7562499715015301
100
AcDbArc
 50
276.3108942132417
 51
0.0000341509458501
  0
ARC
  5
20B1E
330
1A
100
AcDbEntity
  8
ELEVATION
100
AcDbCircle
 10
73.89407691860106
 20
88.61046978961713
 30
0.0
 40
0.1535922131361898
100
AcDbArc
 50
128.5049275729871
 51
247.5111383879129
  0
ARC
  5
20B1F
330
1A
100
AcDbEntity
  8
ELEVATION
100
AcDbCircle
 10
73.96429786377848
 20
88.62031170826776
 30
0.0
 40
0.1535922131361898
100
AcDbArc
 50
308.4888272234145
 51
67.49500047238723
  0
ARC
  5
20B20
330
1A
100
AcDbEntity
  8
ELEVATION
100
AcDbCircle
 10
74.8749271091001
 20
88.30848310428155
 30
0.0
 40
0.7562499715015301
100
AcDbArc
 50
192.161898129067
 51
276.3108942132417
  0
ARC
  5
20B21
330
1A
100
AcDbEntity
  8
ELEVATION
100
AcDbCircle
 10
74.8749271091001
 20
88.30848310428155
 30
0.0
 40
0.9831249718926855
100
AcDbArc
 50
192.0701140469577
 51
274.8505451271129
  0
ARC
  5
20B22
330
1A
100
AcDbEntity
  8
ELEVATION
100
AcDbCircle
 10
71.45799605858337
 20
87.43880081818678
 30
0.0
 40
0.1134375001955777
100
AcDbArc
 50
180.0000359721976
 51
0.0
  0
ARC
  5
20B23
330
1A
100
AcDbEntity
  8
ELEVATION
100
AcDbCircle
 10
71.4492527727125
 20
88.61536786076067
 30
0.0
 40
0.1803770309574297
100
AcDbArc
 50
125.5025403382986
 51
234.4974423588557
  0
ARC
  5
20B24
330
1A
100
AcDbEntity
  8
ELEVATION
100
AcDbCircle
 10
71.46664779172716
 20
88.61536786076067
 30
0.0
 40
0.1803770309574297
100
AcDbArc
 50
305.5025524050591
 51
54.49744759494091
  0
ARC
  5
20B25
330
1A
100
AcDbEntity
  8
ELEVATION
100
AcDbCircle
 10
71.537418053289
 20
88.90961834027075
 30
0.0
 40
0.1512499965354801
100
AcDbArc
 50
282.9723503898188
 51
347.0281662000227
  0
ARC
  5
20B26
330
1A
100
AcDbEntity
  8
ELEVATION
100
AcDbCircle
 10
71.37843673478347
 20
88.90961834027075
 30
0.0
 40
0.1512499965354801
100
AcDbArc
 50
192.9718766024036
 51
257.0276855825764
  0
LINE
  5
20B27
330
1A
100
AcDbEntity
  8
ELEV HIDDEN
100
AcDbLine
 10
67.15268307652877
 20
88.83543773945531
 30
0.0
 11
67.15268307652877
 21
90.50156012632397
 31
0.0
  0
LINE
  5
20B28
330
1A
100
AcDbEntity
  8
ELEVATION
100
AcDbLine
 10
69.11785025957943
 20
88.73089565121336
 30
0.0
 11
68.89319782469101
 21
88.76252201628267
 31
0.0
  0
LINE
  5
20B29
330
1A
100
AcDbEntity
  8
ELEVATION
100
AcDbLine
 10
68.85614293616526
 20
88.50004920783794
 30
0.0
 11
68.78059873804886
 21
88.14920345221436
 31
0.0
  0
LINE
  5
20B2A
330
1A
100
AcDbEntity
  8
ELEVATION
100
AcDbLine
 10
69.08083739114954
 20
88.46844288605643
 30
0.0
 11
69.00263440481649
 21
88.10290485222504
 31
0.0
  0
ARC
  5
20B2B
330
1A
100
AcDbEntity
  8
ELEV HIDDEN
100
AcDbCircle
 10
67.30388241284527
 20
88.83669658951658
 30
0.0
 40
0.1512499853596096
100
AcDbArc
 50
179.5523425716557
 51
262.8209545920916
  0
ARC
  5
20B2C
330
1A
100
AcDbEntity
  8
ELEV HIDDEN
100
AcDbCircle
 10
68.04124811352085
 20
88.30848310428155
 30
0.0
 40
0.9831249718926855
100
AcDbArc
 50
180.0000478113242
 51
265.1494548733024
  0
ARC
  5
20B2D
330
1A
100
AcDbEntity
  8
ELEVATION
100
AcDbCircle
 10
69.02209830401989
 20
88.61046978961713
 30
0.0
 40
0.1535922131361898
100
AcDbArc
 50
292.488861612087
 51
51.49507242701283
  0
ARC
  5
20B2E
330
1A
100
AcDbEntity
  8
ELEVATION
100
AcDbCircle
 10
68.95187735884246
 20
88.62031170826776
 30
0.0
 40
0.1535922131361898
100
AcDbArc
 50
112.5049995271877
 51
231.5111727765856
  0
ARC
  5
20B2F
330
1A
100
AcDbEntity
  8
ELEVATION
100
AcDbCircle
 10
68.04124811352085
 20
88.30848310428155
 30
0.0
 40
0.7562499715015301
100
AcDbArc
 50
263.6891057871726
 51
347.8381018708311
  0
ARC
  5
20B30
330
1A
100
AcDbEntity
  8
ELEVATION
100
AcDbCircle
 10
68.04124811352085
 20
88.30848310428155
 30
0.0
 40
0.9831249718926855
100
AcDbArc
 50
265.1494548733024
 51
347.9298859531442
  0
ARC
  5
20B31
330
1A
100
AcDbEntity
  8
ELEV HIDDEN
100
AcDbCircle
 10
68.0411604313631
 20
88.30856532721737
 30
0.0
 40
0.7562499715015301
100
AcDbArc
 50
179.9999658490541
 51
263.6891057871726
  0
LINE
  5
20B32
330
1A
100
AcDbEntity
  8
ELEV HIDDEN
100
AcDbLine
 10
67.2849806443337
 20
88.30849666266658
 30
0.0
 11
67.2849806443337
 21
88.6866323325521
 31
0.0
  0
LINE
  5
20B33
330
1A
100
AcDbEntity
  8
door
100
AcDbLine
 10
112.9567476908341
 20
33.42872487565364
 30
0.0
 11
113.6982476908379
 21
33.42872487565364
 31
0.0
  0
LINE
  5
20B34
330
1A
100
AcDbEntity
  8
door
100
AcDbLine
 10
112.9567476908341
 20
33.49972487565356
 30
0.0
 11
113.6982476908379
 21
33.49972487565356
 31
0.0
  0
ARC
  5
20B35
330
1A
100
AcDbEntity
  8
door
100
AcDbCircle
 10
112.9567476908341
 20
33.49972487565356
 30
0.0
 40
0.071
100
AcDbArc
 50
180.0
 51
270.0
  0
LINE
  5
20B36
330
1A
100
AcDbEntity
  8
door
100
AcDbLine
 10
113.7294976908233
 20
103.2412249091812
 30
0.0
 11
113.7294976908233
 21
103.1702249091813
 31
0.0
  0
LINE
  5
20B37
330
1A
100
AcDbEntity
  8
door
100
AcDbLine
 10
112.9567476908269
 20
103.2412249091812
 30
0.0
 11
113.7294976908233
 21
103.2412249091812
 31
0.0
  0
ARC
  5
20B38
330
1A
100
AcDbEntity
  8
door
100
AcDbCircle
 10
112.9567476908269
 20
103.1702249091813
 30
0.0
 40
0.071
100
AcDbArc
 50
90.0
 51
180.0
  0
LINE
  5
20B39
330
1A
100
AcDbEntity
  8
door
100
AcDbLine
 10
112.9567476908269
 20
103.1702249091813
 30
0.0
 11
113.7294976908233
 21
103.1702249091813
 31
0.0
  0
LINE
  5
20B3A
330
1A
100
AcDbEntity
  8
door
100
AcDbLine
 10
112.8857476908233
 20
103.1702249091813
 30
0.0
 11
112.8857476908379
 21
33.49972487565356
 31
0.0
  0
LINE
  5
20B3B
330
1A
100
AcDbEntity
  8
door
100
AcDbLine
 10
112.9567476908269
 20
103.1702249091813
 30
0.0
 11
112.9567476908341
 21
33.49972487565356
 31
0.0
  0
LINE
  5
20B3C
330
1A
100
AcDbEntity
  8
frame
100
AcDbLine
 10
112.9567476908341
 20
32.30372487565364
 30
0.0
 11
113.6044976908379
 21
32.30372487565364
 31
0.0
  0
ARC
  5
20B3D
330
1A
100
AcDbEntity
  8
frame
100
AcDbCircle
 10
112.9567476908341
 20
32.37472487565355
 30
0.0
 40
0.071
100
AcDbArc
 50
180.0
 51
270.0
  0
LINE
  5
20B3E
330
1A
100
AcDbEntity
  8
frame
100
AcDbLine
 10
112.9567476908341
 20
33.30372487565365
 30
0.0
 11
114.3544976908379
 21
33.30372487565365
 31
0.0
  0
ARC
  5
20B3F
330
1A
100
AcDbEntity
  8
frame
100
AcDbCircle
 10
112.9567476908341
 20
33.23272487565373
 30
0.0
 40
0.071
100
AcDbArc
 50
90.0
 51
180.0
  0
LINE
  5
20B40
330
1A
100
AcDbEntity
  8
frame
100
AcDbLine
 10
112.8857476908379
 20
33.23272487565373
 30
0.0
 11
112.8857476908379
 21
32.37472487565355
 31
0.0
  0
LINE
  5
20B41
330
1A
100
AcDbEntity
  8
frame
100
AcDbLine
 10
112.9638726908379
 20
33.22559987565365
 30
0.0
 11
114.3544976908379
 21
33.22559987565365
 31
0.0
  0
LINE
  5
20B42
330
1A
100
AcDbEntity
  8
frame
100
AcDbLine
 10
112.9638726908379
 20
33.22559987565365
 30
0.0
 11
112.9638726908379
 21
32.38184987565364
 31
0.0
  0
LINE
  5
20B43
330
1A
100
AcDbEntity
  8
frame
100
AcDbLine
 10
112.9638726908379
 20
32.38184987565364
 30
0.0
 11
113.6044976908379
 21
32.38184987565364
 31
0.0
  0
LINE
  5
20B44
330
1A
100
AcDbEntity
  8
frame
100
AcDbLine
 10
113.6044976908379
 20
32.30372487565364
 30
0.0
 11
113.6044976908379
 21
32.38184987565364
 31
0.0
  0
LINE
  5
20B45
330
1A
100
AcDbEntity
  8
frame
100
AcDbLine
 10
114.3544976908379
 20
33.22559987565365
 30
0.0
 11
114.3544976908379
 21
33.30372487565365
 31
0.0
  0
LINE
  5
20B46
330
1A
100
AcDbEntity
  8
frame
100
AcDbLine
 10
112.9567476908269
 20
103.3037248756536
 30
0.0
 11
113.6044976908233
 21
103.3037248756536
 31
0.0
  0
ARC
  5
20B47
330
1A
100
AcDbEntity
  8
frame
100
AcDbCircle
 10
112.9567476908269
 20
103.3747248756535
 30
0.0
 40
0.071
100
AcDbArc
 50
180.0
 51
270.0
  0
LINE
  5
20B48
330
1A
100
AcDbEntity
  8
frame
100
AcDbLine
 10
112.9567476908269
 20
104.3037248756536
 30
0.0
 11
114.3544976908233
 21
104.3037248756536
 31
0.0
  0
ARC
  5
20B49
330
1A
100
AcDbEntity
  8
frame
100
AcDbCircle
 10
112.9567476908269
 20
104.2327248756537
 30
0.0
 40
0.071
100
AcDbArc
 50
90.0
 51
180.0
  0
LINE
  5
20B4A
330
1A
100
AcDbEntity
  8
frame
100
AcDbLine
 10
112.8857476908233
 20
104.2327248756537
 30
0.0
 11
112.8857476908233
 21
103.3747248756535
 31
0.0
  0
LINE
  5
20B4B
330
1A
100
AcDbEntity
  8
frame
100
AcDbLine
 10
112.9638726908233
 20
104.2255998756536
 30
0.0
 11
114.3544976908233
 21
104.2255998756536
 31
0.0
  0
LINE
  5
20B4C
330
1A
100
AcDbEntity
  8
frame
100
AcDbLine
 10
112.9638726908233
 20
104.2255998756536
 30
0.0
 11
112.9638726908233
 21
103.3818498756536
 31
0.0
  0
LINE
  5
20B4D
330
1A
100
AcDbEntity
  8
frame
100
AcDbLine
 10
112.9638726908233
 20
103.3818498756536
 30
0.0
 11
113.6044976908233
 21
103.3818498756536
 31
0.0
  0
LINE
  5
20B4E
330
1A
100
AcDbEntity
  8
frame
100
AcDbLine
 10
113.6044976908233
 20
103.3037248756536
 30
0.0
 11
113.6044976908233
 21
103.3818498756536
 31
0.0
  0
LINE
  5
20B4F
330
1A
100
AcDbEntity
  8
frame
100
AcDbLine
 10
114.3544976908233
 20
104.2255998756536
 30
0.0
 11
114.3544976908233
 21
104.3037248756536
 31
0.0
  0
LINE
  5
20B50
330
1A
100
AcDbEntity
  8
frame
100
AcDbLine
 10
127.948247690816
 20
104.2761377565366
 30
0.0
 11
127.9482476908306
 21
32.40113775653663
 31
0.0
  0
LINE
  5
20B51
330
1A
100
AcDbEntity
  8
frame
100
AcDbLine
 10
128.010747690816
 20
104.2761377565366
 30
0.0
 11
128.0107476908306
 21
32.40113775653663
 31
0.0
  0
LINE
  5
20B52
330
1A
100
AcDbEntity
  8
frame
100
AcDbLine
 10
127.948247690816
 20
104.2761377565366
 30
0.0
 11
128.010747690816
 21
104.2761377565366
 31
0.0
  0
LINE
  5
20B53
330
1A
100
AcDbEntity
  8
frame
100
AcDbLine
 10
127.9482476908306
 20
32.40113775653663
 30
0.0
 11
128.0107476908306
 21
32.40113775653663
 31
0.0
  0
LINE
  5
20B54
330
1A
100
AcDbEntity
  8
door
100
AcDbLine
 10
113.6982476908379
 20
33.42872487565364
 30
0.0
 11
113.6982476908379
 21
33.49972487565356
 31
0.0
  0
TEXT
  5
20B55
330
1A
100
AcDbEntity
  8
TEXT
100
AcDbText
 10
99.5060168588243
 20
63.13877627478621
 30
0.0
 40
1.68
  1
LOCKER HEIGHT
 50
90.0
  7
ROMANS
 72
     1
 11
99.5060168588243
 21
73.25877627478622
 31
0.0
100
AcDbText
  0
LINE
  5
20B56
330
1A
100
AcDbEntity
  8
dim
100
AcDbLine
 10
111.5540168588341
 20
32.30372087565411
 30
0.0
 11
99.55401685883408
 21
32.30372087565411
 31
0.0
  0
LINE
  5
20B57
330
1A
100
AcDbEntity
  8
dim
100
AcDbLine
 10
100.9940168588291
 20
32.30372087565411
 30
0.0
 11
100.9940168588218
 21
104.3037208756541
 31
0.0
  0
LINE
  5
20B58
330
1A
100
AcDbEntity
  8
dim
100
AcDbLine
 10
100.5140168588332
 20
35.30372087565411
 30
0.0
 11
101.4740168588323
 21
35.30372087565411
 31
0.0
  0
LINE
  5
20B59
330
1A
100
AcDbEntity
  8
dim
100
AcDbLine
 10
101.2340168588343
 20
35.30372087565411
 30
0.0
 11
100.9940168588291
 21
32.30372087565411
 31
0.0
  0
LINE
  5
20B5A
330
1A
100
AcDbEntity
  8
dim
100
AcDbLine
 10
100.7540168588311
 20
35.30372087565411
 30
0.0
 11
100.9940168588291
 21
32.30372087565411
 31
0.0
  0
LINE
  5
20B5B
330
1A
100
AcDbEntity
  8
dim
100
AcDbLine
 10
100.9940168588291
 20
32.30372087565411
 30
0.0
 11
101.4740168588323
 21
35.30372087565411
 31
0.0
  0
LINE
  5
20B5C
330
1A
100
AcDbEntity
  8
dim
100
AcDbLine
 10
100.5140168588332
 20
35.30372087565411
 30
0.0
 11
100.9940168588291
 21
32.30372087565411
 31
0.0
  0
LINE
  5
20B5D
330
1A
100
AcDbEntity
  8
dim
100
AcDbLine
 10
106.9940168588291
 20
32.30372087565411
 30
0.0
 11
106.9940168588291
 21
29.30367263547305
 31
0.0
  0
LINE
  5
20B5E
330
1A
100
AcDbEntity
  8
dim
100
AcDbLine
 10
106.9940168588218
 20
104.3037208756541
 30
0.0
 11
106.9940168588291
 21
33.30361847565291
 31
0.0
  0
LINE
  5
20B5F
330
1A
100
AcDbEntity
  8
dim
100
AcDbLine
 10
111.5540168588341
 20
33.30361847565291
 30
0.0
 11
106.9940168588291
 21
33.30361847565291
 31
0.0
  0
LINE
  5
20B60
330
1A
100
AcDbEntity
  8
dim
100
AcDbLine
 10
106.9940168588291
 20
33.30361847565291
 30
0.0
 11
105.5060168588315
 21
33.30361847565291
 31
0.0
  0
TEXT
  5
20B61
330
1A
100
AcDbEntity
  8
elevation text
100
AcDbText
 10
105.5060168588315
 20
28.58784670856118
 30
0.0
 40
2.04
  1
1"
 50
90.0
  7
ROMANS
 72
     1
 11
105.5060168588315
 21
30.43356099427547
 31
0.0
100
AcDbText
  0
TEXT
  5
20B62
330
1A
100
AcDbEntity
  8
elevation text
100
AcDbText
 10
105.5060168588315
 20
64.06685001941809
 30
0.0
 40
2.04
  1
59"
 50
90.0
  7
ROMANS
 72
     1
 11
105.5060168588315
 21
66.73827859084667
 31
0.0
100
AcDbText
  0
LINE
  5
20B63
330
1A
100
AcDbEntity
  8
dim
100
AcDbLine
 10
101.4740168588178
 20
101.3037208756523
 30
0.0
 11
100.5140168588259
 21
101.3037208756523
 31
0.0
  0
LINE
  5
20B64
330
1A
100
AcDbEntity
  8
dim
100
AcDbLine
 10
100.7540168588166
 20
101.3037208756523
 30
0.0
 11
100.9940168588218
 21
104.3037208756523
 31
0.0
  0
LINE
  5
20B65
330
1A
100
AcDbEntity
  8
dim
100
AcDbLine
 10
101.2340168588198
 20
101.3037208756523
 30
0.0
 11
100.9940168588218
 21
104.3037208756523
 31
0.0
  0
LINE
  5
20B66
330
1A
100
AcDbEntity
  8
dim
100
AcDbLine
 10
100.9940168588218
 20
104.3037208756523
 30
0.0
 11
100.5140168588259
 21
101.3037208756523
 31
0.0
  0
LINE
  5
20B67
330
1A
100
AcDbEntity
  8
dim
100
AcDbLine
 10
101.4740168588178
 20
101.3037208756523
 30
0.0
 11
100.9940168588218
 21
104.3037208756523
 31
0.0
  0
LINE
  5
20B68
330
1A
100
AcDbEntity
  8
dim
100
AcDbLine
 10
107.4740168588178
 20
101.3037208756523
 30
0.0
 11
106.5140168588259
 21
101.3037208756523
 31
0.0
  0
LINE
  5
20B69
330
1A
100
AcDbEntity
  8
dim
100
AcDbLine
 10
106.7540168588166
 20
101.3037208756523
 30
0.0
 11
106.9940168588218
 21
104.3037208756523
 31
0.0
  0
LINE
  5
20B6A
330
1A
100
AcDbEntity
  8
dim
100
AcDbLine
 10
107.2340168588198
 20
101.3037208756523
 30
0.0
 11
106.9940168588218
 21
104.3037208756523
 31
0.0
  0
LINE
  5
20B6B
330
1A
100
AcDbEntity
  8
dim
100
AcDbLine
 10
106.9940168588218
 20
104.3037208756523
 30
0.0
 11
106.5140168588259
 21
101.3037208756523
 31
0.0
  0
LINE
  5
20B6C
330
1A
100
AcDbEntity
  8
dim
100
AcDbLine
 10
107.4740168588178
 20
101.3037208756523
 30
0.0
 11
106.9940168588218
 21
104.3037208756523
 31
0.0
  0
LINE
  5
20B6D
330
1A
100
AcDbEntity
  8
dim
100
AcDbLine
 10
106.5140091403955
 20
29.30367263547305
 30
0.0
 11
107.4740245772627
 21
29.30367263547305
 31
0.0
  0
LINE
  5
20B6E
330
1A
100
AcDbEntity
  8
dim
100
AcDbLine
 10
107.2340207180459
 20
29.30367263547305
 30
0.0
 11
106.9940168588291
 21
32.30372087565411
 31
0.0
  0
LINE
  5
20B6F
330
1A
100
AcDbEntity
  8
dim
100
AcDbLine
 10
106.7540129996123
 20
29.30367263547305
 30
0.0
 11
106.9940168588291
 21
32.30372087565411
 31
0.0
  0
LINE
  5
20B70
330
1A
100
AcDbEntity
  8
dim
100
AcDbLine
 10
106.9940168588291
 20
32.30372087565411
 30
0.0
 11
107.4740245772627
 21
29.30367263547305
 31
0.0
  0
LINE
  5
20B71
330
1A
100
AcDbEntity
  8
dim
100
AcDbLine
 10
106.5140091403955
 20
29.30367263547305
 30
0.0
 11
106.9940168588291
 21
32.30372087565411
 31
0.0
  0
LINE
  5
20B72
330
1A
100
AcDbEntity
  8
dim
100
AcDbLine
 10
106.5140168588332
 20
36.30361847565291
 30
0.0
 11
107.4740168588323
 21
36.30361847565291
 31
0.0
  0
LINE
  5
20B73
330
1A
100
AcDbEntity
  8
dim
100
AcDbLine
 10
107.2340168588343
 20
36.30361847565291
 30
0.0
 11
106.9940168588291
 21
33.30361847565291
 31
0.0
  0
LINE
  5
20B74
330
1A
100
AcDbEntity
  8
dim
100
AcDbLine
 10
106.7540168588311
 20
36.30361847565291
 30
0.0
 11
106.9940168588291
 21
33.30361847565291
 31
0.0
  0
LINE
  5
20B75
330
1A
100
AcDbEntity
  8
dim
100
AcDbLine
 10
106.9940168588291
 20
33.30361847565291
 30
0.0
 11
107.4740168588323
 21
36.30361847565291
 31
0.0
  0
LINE
  5
20B76
330
1A
100
AcDbEntity
  8
dim
100
AcDbLine
 10
106.5140168588332
 20
36.30361847565291
 30
0.0
 11
106.9940168588291
 21
33.30361847565291
 31
0.0
  0
LINE
  5
20B77
330
1A
100
AcDbEntity
  8
dim
100
AcDbLine
 10
111.5540168588195
 20
104.3037208756541
 30
0.0
 11
99.55401685881952
 21
104.3037208756541
 31
0.0
  0
TEXT
  5
20B78
330
1A
100
AcDbEntity
  8
elevation text
100
AcDbText
 10
99.50601685883157
 20
55.16791568051782
 30
0.0
 40
2.04
  1
72"
 50
90.0
  7
ROMANS
 72
     1
 11
99.50601685883157
 21
57.83934425194638
 31
0.0
100
AcDbText
  0
LINE
  5
20B79
330
1A
100
AcDbEntity
  8
wall
100
AcDbLine
 10
128.0732484408363
 20
108.4011377565366
 30
0.0
 11
128.0732484408363
 21
32.40113775653663
 31
0.0
  0
LINE
  5
20B7A
330
1A
100
AcDbEntity
  8
wall
100
AcDbLine
 10
126.5876965845891
 20
98.44362978754544
 30
0.0
 11
132.91725504856
 21
98.44362978754544
 31
0.0
  0
LINE
  5
20B7B
330
1A
100
AcDbEntity
  8
top
370
    35
100
AcDbLine
 10
127.8541874707807
 20
33.24872502065591
 30
0.0
 11
114.6194670991171
 21
33.24872502065591
 31
0.0
  0
ARC
  5
20B7C
330
1A
100
AcDbEntity
  8
top
370
    35
100
AcDbCircle
 10
114.6194670991171
 20
33.19372501187354
 30
0.0
 40
0.0550000088000004
100
AcDbArc
 50
90.0
 51
134.9999999998526
  0
LINE
  5
20B7D
330
1A
100
AcDbEntity
  8
top
370
    35
100
AcDbLine
 10
126.7529372944627
 20
32.40497488561414
 30
0.0
 11
115.1123104320504
 21
32.40497488561414
 31
0.0
  0
LINE
  5
20B7E
330
1A
100
AcDbEntity
  8
top
370
    35
100
AcDbLine
 10
127.8541874707807
 20
33.19372501187354
 30
0.0
 11
126.7529372944627
 21
33.19372501187354
 31
0.0
  0
LINE
  5
20B7F
330
1A
100
AcDbEntity
  8
top
370
    35
100
AcDbLine
 10
115.1123104320504
 20
33.24872502065591
 30
0.0
 11
115.1123104320504
 21
32.40497488561414
 31
0.0
  0
LINE
  5
20B80
330
1A
100
AcDbEntity
  8
top
370
    35
100
AcDbLine
 10
126.7529372944627
 20
33.24872502065591
 30
0.0
 11
126.7529372944627
 21
32.40497488561414
 31
0.0
  0
LINE
  5
20B81
330
1A
100
AcDbEntity
  8
top
370
    35
100
AcDbLine
 10
114.5341853396167
 20
33.1862250106442
 30
0.0
 11
114.5805762199816
 21
33.23261589100912
 31
0.0
  0
LINE
  5
20B82
330
1A
100
AcDbEntity
  8
top
370
    35
100
AcDbLine
 10
114.5730762187522
 20
33.14733413145041
 30
0.0
 11
114.6194670991171
 21
33.19372501187354
 31
0.0
  0
ARC
  5
20B83
330
1A
100
AcDbEntity
  8
top
370
    35
100
AcDbCircle
 10
114.5341853396167
 20
33.1862250106442
 30
0.0
 40
0.0550000088000004
100
AcDbArc
 50
270.0
 51
314.9999999998526
  0
LINE
  5
20B84
330
1A
100
AcDbEntity
  8
top
370
    35
100
AcDbLine
 10
113.002935094446
 20
33.13122500180361
 30
0.0
 11
113.002935094446
 21
32.71747493561452
 31
0.0
  0
LINE
  5
20B85
330
1A
100
AcDbEntity
  8
top
370
    35
100
AcDbLine
 10
113.0579351034612
 20
33.13122500180361
 30
0.0
 11
113.0579351034612
 21
32.71747493561452
 31
0.0
  0
LINE
  5
20B86
330
1A
100
AcDbEntity
  8
top
370
    35
100
AcDbLine
 10
113.0579351034612
 20
33.1862250106442
 30
0.0
 11
114.5341853396167
 21
33.1862250106442
 31
0.0
  0
ARC
  5
20B87
330
1A
100
AcDbEntity
  8
top
370
    35
100
AcDbCircle
 10
113.0579351034612
 20
33.13122500180361
 30
0.0
 40
0.0550000088000004
100
AcDbArc
 50
90.0
 51
180.0
  0
LINE
  5
20B88
330
1A
100
AcDbEntity
  8
top
370
    35
100
AcDbLine
 10
113.0579351034612
 20
33.13122500180361
 30
0.0
 11
114.5341853396167
 21
33.13122500180361
 31
0.0
  0
LINE
  5
20B89
330
1A
100
AcDbEntity
  8
top
370
    35
100
AcDbLine
 10
115.1123104320504
 20
33.19372501187354
 30
0.0
 11
114.6194670991171
 21
33.19372501187354
 31
0.0
  0
LINE
  5
20B8A
330
1A
100
AcDbEntity
  8
top
370
    35
100
AcDbLine
 10
113.002935094446
 20
32.71747493561452
 30
0.0
 11
113.0579351034612
 21
32.71747493561452
 31
0.0
  0
LINE
  5
20B8B
330
1A
100
AcDbEntity
  8
top
370
    35
100
AcDbLine
 10
127.9091874795631
 20
33.19372501187354
 30
0.0
 11
127.9091874795631
 21
32.40497488561414
 31
0.0
  0
ARC
  5
20B8C
330
1A
100
AcDbEntity
  8
top
370
    35
100
AcDbCircle
 10
127.8541874707807
 20
33.19372501187354
 30
0.0
 40
0.0550000088000004
100
AcDbArc
 50
0.0
 51
90.0
  0
LINE
  5
20B8D
330
1A
100
AcDbEntity
  8
top
370
    35
100
AcDbLine
 10
127.8541874707807
 20
33.19372501187354
 30
0.0
 11
127.8541874707807
 21
32.40497488561414
 31
0.0
  0
LINE
  5
20B8E
330
1A
100
AcDbEntity
  8
top
370
    35
100
AcDbLine
 10
127.9091874795631
 20
32.40497488561414
 30
0.0
 11
127.8541874707807
 21
32.40497488561414
 31
0.0
  0
LINE
  5
20B8F
330
1A
100
AcDbEntity
  8
top
370
    35
100
AcDbLine
 10
127.8541874707662
 20
104.2487250206559
 30
0.0
 11
114.6194670991026
 21
104.2487250206559
 31
0.0
  0
ARC
  5
20B90
330
1A
100
AcDbEntity
  8
top
370
    35
100
AcDbCircle
 10
114.6194670991026
 20
104.1937250118735
 30
0.0
 40
0.0550000088000004
100
AcDbArc
 50
90.0
 51
134.9999999998526
  0
LINE
  5
20B91
330
1A
100
AcDbEntity
  8
top
370
    35
100
AcDbLine
 10
126.7529372944482
 20
103.4049748856141
 30
0.0
 11
115.1123104320359
 21
103.4049748856141
 31
0.0
  0
LINE
  5
20B92
330
1A
100
AcDbEntity
  8
top
370
    35
100
AcDbLine
 10
127.8541874707662
 20
104.1937250118735
 30
0.0
 11
126.7529372944482
 21
104.1937250118735
 31
0.0
  0
LINE
  5
20B93
330
1A
100
AcDbEntity
  8
top
370
    35
100
AcDbLine
 10
115.1123104320359
 20
104.2487250206559
 30
0.0
 11
115.1123104320359
 21
103.4049748856141
 31
0.0
  0
LINE
  5
20B94
330
1A
100
AcDbEntity
  8
top
370
    35
100
AcDbLine
 10
126.7529372944482
 20
104.2487250206559
 30
0.0
 11
126.7529372944482
 21
103.4049748856141
 31
0.0
  0
LINE
  5
20B95
330
1A
100
AcDbEntity
  8
top
370
    35
100
AcDbLine
 10
114.5341853396021
 20
104.1862250106442
 30
0.0
 11
114.580576219967
 21
104.2326158910091
 31
0.0
  0
LINE
  5
20B96
330
1A
100
AcDbEntity
  8
top
370
    35
100
AcDbLine
 10
114.5730762187377
 20
104.1473341314504
 30
0.0
 11
114.6194670991026
 21
104.1937250118735
 31
0.0
  0
ARC
  5
20B97
330
1A
100
AcDbEntity
  8
top
370
    35
100
AcDbCircle
 10
114.5341853396021
 20
104.1862250106442
 30
0.0
 40
0.0550000088000004
100
AcDbArc
 50
270.0
 51
314.9999999998526
  0
LINE
  5
20B98
330
1A
100
AcDbEntity
  8
top
370
    35
100
AcDbLine
 10
113.0029350944314
 20
104.1312250018036
 30
0.0
 11
113.0029350944314
 21
103.7174749356145
 31
0.0
  0
LINE
  5
20B99
330
1A
100
AcDbEntity
  8
top
370
    35
100
AcDbLine
 10
113.0579351034466
 20
104.1312250018036
 30
0.0
 11
113.0579351034466
 21
103.7174749356145
 31
0.0
  0
LINE
  5
20B9A
330
1A
100
AcDbEntity
  8
top
370
    35
100
AcDbLine
 10
113.0579351034466
 20
104.1862250106442
 30
0.0
 11
114.5341853396021
 21
104.1862250106442
 31
0.0
  0
ARC
  5
20B9B
330
1A
100
AcDbEntity
  8
top
370
    35
100
AcDbCircle
 10
113.0579351034466
 20
104.1312250018036
 30
0.0
 40
0.0550000088000004
100
AcDbArc
 50
90.0
 51
180.0
  0
LINE
  5
20B9C
330
1A
100
AcDbEntity
  8
top
370
    35
100
AcDbLine
 10
113.0579351034466
 20
104.1312250018036
 30
0.0
 11
114.5341853396021
 21
104.1312250018036
 31
0.0
  0
LINE
  5
20B9D
330
1A
100
AcDbEntity
  8
top
370
    35
100
AcDbLine
 10
115.1123104320359
 20
104.1937250118735
 30
0.0
 11
114.6194670991026
 21
104.1937250118735
 31
0.0
  0
LINE
  5
20B9E
330
1A
100
AcDbEntity
  8
top
370
    35
100
AcDbLine
 10
113.0029350944314
 20
103.7174749356145
 30
0.0
 11
113.0579351034466
 21
103.7174749356145
 31
0.0
  0
LINE
  5
20B9F
330
1A
100
AcDbEntity
  8
top
370
    35
100
AcDbLine
 10
127.9091874795485
 20
104.1937250118735
 30
0.0
 11
127.9091874795485
 21
103.4049748856141
 31
0.0
  0
ARC
  5
20BA0
330
1A
100
AcDbEntity
  8
top
370
    35
100
AcDbCircle
 10
127.8541874707662
 20
104.1937250118735
 30
0.0
 40
0.0550000088000004
100
AcDbArc
 50
0.0
 51
90.0
  0
LINE
  5
20BA1
330
1A
100
AcDbEntity
  8
top
370
    35
100
AcDbLine
 10
127.8541874707662
 20
104.1937250118735
 30
0.0
 11
127.8541874707662
 21
103.4049748856141
 31
0.0
  0
LINE
  5
20BA2
330
1A
100
AcDbEntity
  8
top
370
    35
100
AcDbLine
 10
127.9091874795485
 20
103.4049748856141
 30
0.0
 11
127.8541874707662
 21
103.4049748856141
 31
0.0
  0
LINE
  5
20BA3
330
1A
100
AcDbEntity
  8
diamonds
  6
PHANTOM2
 62
     2
 48
2.0
100
AcDbLine
 10
116.127542494818
 20
36.57843587653588
 30
0.0
 11
116.127542494818
 21
100.7417551102735
 31
0.0
  0
LINE
  5
20BA4
330
1A
100
AcDbEntity
  8
diamonds
  6
PHANTOM2
 62
     2
 48
2.0
100
AcDbLine
 10
124.8774208637478
 20
36.57843587653588
 30
0.0
 11
124.8774208637405
 21
100.7417551102735
 31
0.0
  0
LINE
  5
20BA5
330
1A
100
AcDbEntity
  8
diamonds
  6
PHANTOM2
 62
     2
 48
2.0
100
AcDbLine
 10
115.3618640506392
 20
99.869223175574
 30
0.0
 11
125.5143303805016
 21
99.869223175574
 31
0.0
  0
LINE
  5
20BA6
330
1A
100
AcDbEntity
  8
diamonds
  6
PHANTOM2
 62
     2
 48
2.0
100
AcDbLine
 10
115.138959461161
 20
37.77540893078913
 30
0.0
 11
125.512434102864
 21
37.77540893078913
 31
0.0
  0
INSERT
  5
20BA7
330
1A
100
AcDbEntity
  8
OBJECT
100
AcDbBlockReference
  2
A$C6895fdcc
 10
116.1274509420836
 20
99.88166294241455
 30
0.0
  0
INSERT
  5
20BA8
330
1A
100
AcDbEntity
  8
OBJECT
100
AcDbBlockReference
  2
A$C6895fdcc
 10
117.8774548967121
 20
99.88166294241455
 30
0.0
  0
INSERT
  5
20BA9
330
1A
100
AcDbEntity
  8
OBJECT
100
AcDbBlockReference
  2
A$C6895fdcc
 10
119.6274512220625
 20
99.88166294241455
 30
0.0
  0
INSERT
  5
20BAA
330
1A
100
AcDbEntity
  8
OBJECT
100
AcDbBlockReference
  2
A$C6895fdcc
 10
121.3774513619937
 20
99.88166294241455
 30
0.0
  0
INSERT
  5
20BAB
330
1A
100
AcDbEntity
  8
OBJECT
100
AcDbBlockReference
  2
A$C6895fdcc
 10
123.1274438727632
 20
99.88166294241455
 30
0.0
  0
INSERT
  5
20BAC
330
1A
100
AcDbEntity
  8
OBJECT
100
AcDbBlockReference
  2
A$C6895fdcc
 10
124.8774478273917
 20
99.88166294241455
 30
0.0
  0
INSERT
  5
20BAD
330
1A
100
AcDbEntity
  8
OBJECT
100
AcDbBlockReference
  2
A$C6895fdcc
 10
124.8774478273917
 20
98.13167043176145
 30
0.0
  0
INSERT
  5
20BAE
330
1A
100
AcDbEntity
  8
OBJECT
100
AcDbBlockReference
  2
A$C6895fdcc
 10
124.8774478273917
 20
96.38167029177203
 30
0.0
  0
INSERT
  5
20BAF
330
1A
100
AcDbEntity
  8
OBJECT
100
AcDbBlockReference
  2
A$C6895fdcc
 10
123.1274438727632
 20
98.13167043176145
 30
0.0
  0
INSERT
  5
20BB0
330
1A
100
AcDbEntity
  8
OBJECT
100
AcDbBlockReference
  2
A$C6895fdcc
 10
117.8774548967121
 20
98.13167043176145
 30
0.0
  0
INSERT
  5
20BB1
330
1A
100
AcDbEntity
  8
OBJECT
100
AcDbBlockReference
  2
A$C6895fdcc
 10
116.1274509420836
 20
98.13167043176145
 30
0.0
  0
INSERT
  5
20BB2
330
1A
100
AcDbEntity
  8
OBJECT
100
AcDbBlockReference
  2
A$C6895fdcc
 10
116.1274509420836
 20
96.38167029177203
 30
0.0
  0
INSERT
  5
20BB3
330
1A
100
AcDbEntity
  8
OBJECT
100
AcDbBlockReference
  2
A$C6895fdcc
 10
124.8774478273917
 20
96.38167029177203
 30
0.0
  0
INSERT
  5
20BB4
330
1A
100
AcDbEntity
  8
OBJECT
100
AcDbBlockReference
  2
A$C6895fdcc
 10
116.1274239784397
 20
41.28792205534773
 30
0.0
  0
INSERT
  5
20BB5
330
1A
100
AcDbEntity
  8
OBJECT
100
AcDbBlockReference
  2
A$C6895fdcc
 10
116.1274239784397
 20
39.53792191535831
 30
0.0
  0
INSERT
  5
20BB6
330
1A
100
AcDbEntity
  8
OBJECT
100
AcDbBlockReference
  2
A$C6895fdcc
 10
117.8774279330682
 20
39.53792191535831
 30
0.0
  0
INSERT
  5
20BB7
330
1A
100
AcDbEntity
  8
OBJECT
100
AcDbBlockReference
  2
A$C6895fdcc
 10
116.1274239784397
 20
37.78790651652162
 30
0.0
  0
INSERT
  5
20BB8
330
1A
100
AcDbEntity
  8
OBJECT
100
AcDbBlockReference
  2
A$C6895fdcc
 10
117.8774279330682
 20
37.78790651652162
 30
0.0
  0
INSERT
  5
20BB9
330
1A
100
AcDbEntity
  8
OBJECT
100
AcDbBlockReference
  2
A$C6895fdcc
 10
119.6274242584186
 20
37.78790651652162
 30
0.0
  0
INSERT
  5
20BBA
330
1A
100
AcDbEntity
  8
OBJECT
100
AcDbBlockReference
  2
A$C6895fdcc
 10
121.3774243983498
 20
37.78790651652162
 30
0.0
  0
INSERT
  5
20BBB
330
1A
100
AcDbEntity
  8
OBJECT
100
AcDbBlockReference
  2
A$C6895fdcc
 10
123.1274169091193
 20
37.78790651652162
 30
0.0
  0
INSERT
  5
20BBC
330
1A
100
AcDbEntity
  8
OBJECT
100
AcDbBlockReference
  2
A$C6895fdcc
 10
124.8774208637478
 20
37.78790651652162
 30
0.0
  0
INSERT
  5
20BBD
330
1A
100
AcDbEntity
  8
OBJECT
100
AcDbBlockReference
  2
A$C6895fdcc
 10
123.1274169091193
 20
39.53792191535831
 30
0.0
  0
INSERT
  5
20BBE
330
1A
100
AcDbEntity
  8
OBJECT
100
AcDbBlockReference
  2
A$C6895fdcc
 10
124.8774208637478
 20
39.53792191535831
 30
0.0
  0
INSERT
  5
20BBF
330
1A
100
AcDbEntity
  8
OBJECT
100
AcDbBlockReference
  2
A$C6895fdcc
 10
124.8774208637478
 20
41.28792205534773
 30
0.0
  0
LINE
  5
20BC0
330
1A
100
AcDbEntity
  8
top
100
AcDbLine
 10
127.8541879506301
 20
92.31872335179104
 30
0.0
 11
114.2141852883142
 21
92.31872335179104
 31
0.0
  0
LINE
  5
20BC1
330
1A
100
AcDbEntity
  8
top
100
AcDbLine
 10
126.7529377747778
 20
91.47497321674928
 30
0.0
 11
115.1123104320359
 21
91.47497321674928
 31
0.0
  0
LINE
  5
20BC2
330
1A
100
AcDbEntity
  8
top
100
AcDbLine
 10
127.8541879506301
 20
92.26372334300867
 30
0.0
 11
126.7529377747778
 21
92.26372334300867
 31
0.0
  0
LINE
  5
20BC3
330
1A
100
AcDbEntity
  8
top
100
AcDbLine
 10
115.1123104320359
 20
92.31872335179104
 30
0.0
 11
115.1123104320359
 21
91.47497321674928
 31
0.0
  0
LINE
  5
20BC4
330
1A
100
AcDbEntity
  8
top
100
AcDbLine
 10
126.7529377747778
 20
92.31872335179104
 30
0.0
 11
126.7529377747778
 21
91.47497321674928
 31
0.0
  0
LINE
  5
20BC5
330
1A
100
AcDbEntity
  8
top
100
AcDbLine
 10
114.1591852797646
 20
92.26372334300867
 30
0.0
 11
114.1591852797646
 21
91.37372320061876
 31
0.0
  0
LINE
  5
20BC6
330
1A
100
AcDbEntity
  8
top
100
AcDbLine
 10
114.2141852883142
 20
92.26372334300867
 30
0.0
 11
114.2141852883142
 21
91.37372320061876
 31
0.0
  0
ARC
  5
20BC7
330
1A
100
AcDbEntity
  8
top
100
AcDbCircle
 10
114.2141852883142
 20
92.26372334300867
 30
0.0
 40
0.0550000088000004
100
AcDbArc
 50
90.0
 51
180.0
  0
LINE
  5
20BC8
330
1A
100
AcDbEntity
  8
top
100
AcDbLine
 10
115.1123104320359
 20
92.26372334300867
 30
0.0
 11
114.2141852883142
 21
92.26372334300867
 31
0.0
  0
LINE
  5
20BC9
330
1A
100
AcDbEntity
  8
top
100
AcDbLine
 10
127.9091879596453
 20
92.26372334300867
 30
0.0
 11
127.9091879596453
 21
91.47497321674928
 31
0.0
  0
ARC
  5
20BCA
330
1A
100
AcDbEntity
  8
top
100
AcDbCircle
 10
127.8541879506301
 20
92.26372334300867
 30
0.0
 40
0.0550000088000004
100
AcDbArc
 50
0.0
 51
90.0
  0
LINE
  5
20BCB
330
1A
100
AcDbEntity
  8
top
100
AcDbLine
 10
127.8541879506301
 20
92.26372334300867
 30
0.0
 11
127.8541879506301
 21
91.47497321674928
 31
0.0
  0
LINE
  5
20BCC
330
1A
100
AcDbEntity
  8
top
100
AcDbLine
 10
127.9091879596453
 20
91.47497321674928
 30
0.0
 11
127.8541879506301
 21
91.47497321674928
 31
0.0
  0
ARC
  5
20BCD
330
1A
100
AcDbEntity
  8
top
100
AcDbCircle
 10
114.2141852883142
 20
91.37372320061876
 30
0.0
 40
0.0550000088000004
100
AcDbArc
 50
180.0
 51
314.9999999998526
  0
LINE
  5
20BCE
330
1A
100
AcDbEntity
  8
top
100
AcDbLine
 10
114.2141852883142
 20
91.37372320061876
 30
0.0
 11
114.6172362180878
 21
91.77677413039237
 31
0.0
  0
LINE
  5
20BCF
330
1A
100
AcDbEntity
  8
top
100
AcDbLine
 10
114.2530761674497
 20
91.33483232142499
 30
0.0
 11
114.6561270972233
 21
91.73788325119858
 31
0.0
  0
LINE
  5
20BD0
330
1A
100
AcDbEntity
  8
top
100
AcDbLine
 10
114.6172362180878
 20
91.77677413039237
 30
0.0
 11
114.6561270972233
 21
91.73788325119858
 31
0.0
  0
LINE
  5
20BD1
330
1A
100
AcDbEntity
  8
dim
100
AcDbLine
 10
111.5540165307684
 20
92.3037239893838
 30
0.0
 11
106.9940158011377
 21
92.3037239893838
 31
0.0
  0
INSERT
  5
20BD2
330
1A
100
AcDbEntity
  8
dim
100
AcDbBlockReference
  2
ARRO2
 10
106.9940158011377
 20
92.3037239893838
 30
0.0
 41
24.0
 42
24.0
 43
24.0
 50
90.0
  0
TEXT
  5
20BD3
330
1A
100
AcDbEntity
  8
elevation text
100
AcDbText
 10
105.5060155629398
 20
95.92671141458259
 30
0.0
 40
2.040000326400013
  1
12"
 50
90.0
  7
ROMANS
 72
     1
 11
105.5060155629398
 21
98.74385472246832
 31
0.0
100
AcDbText
  0
LINE
  5
20BD4
330
1A
100
AcDbEntity
  8
dim
100
AcDbLine
 10
106.9940158011377
 20
92.3037239893838
 30
0.0
 11
105.5060155629398
 21
92.3037239893838
 31
0.0
  0
MTEXT
  5
20BD5
330
1A
100
AcDbEntity
  8
ELEVATION
100
AcDbMText
 10
135.2507283911109
 20
99.23724633388339
 30
0.0
 40
1.5
 41
22.51445628941201
 71
     1
 72
     5
  1
ANCHORING BY ERECTOR
  7
ELEVATION
 73
     1
 44
1.0
  0
MTEXT
  5
20BD6
330
1A
100
AcDbEntity
  8
ELEVATION
100
AcDbMText
 10
135.2507283911109
 20
89.64390383806312
 30
0.0
 40
1.5
 41
22.51445628941201
 71
     1
 72
     5
  1
DIAMOND PERFORATED SIDES
  7
ELEVATION
 73
     1
 44
1.0
  0
LINE
  5
20BD7
330
1A
100
AcDbEntity
  8
dim
100
AcDbLine
 10
128.0107476908306
 20
21.18886025331812
 30
0.0
 11
112.8857476908379
 21
21.18886025331812
 31
0.0
  0
LINE
  5
20BD8
330
1A
100
AcDbEntity
  8
dim
100
AcDbLine
 10
128.073248440829
 20
21.18886025331449
 30
0.0
 11
134.073248440829
 21
21.18886025331449
 31
0.0
  0
LINE
  5
20BD9
330
1A
100
AcDbEntity
  8
dim
100
AcDbLine
 10
115.8857476908379
 20
21.66886025331769
 30
0.0
 11
115.8857476908379
 21
20.70886025331856
 31
0.0
  0
LINE
  5
20BDA
330
1A
100
AcDbEntity
  8
dim
100
AcDbLine
 10
115.8857476908379
 20
20.94886025331835
 30
0.0
 11
112.8857476908379
 21
21.18886025331812
 31
0.0
  0
LINE
  5
20BDB
330
1A
100
AcDbEntity
  8
dim
100
AcDbLine
 10
115.8857476908379
 20
21.42886025331791
 30
0.0
 11
112.8857476908379
 21
21.18886025331812
 31
0.0
  0
LINE
  5
20BDC
330
1A
100
AcDbEntity
  8
dim
100
AcDbLine
 10
112.8857476908379
 20
21.18886025331812
 30
0.0
 11
115.8857476908379
 21
20.70886025331856
 31
0.0
  0
LINE
  5
20BDD
330
1A
100
AcDbEntity
  8
dim
100
AcDbLine
 10
115.8857476908379
 20
21.66886025331769
 30
0.0
 11
112.8857476908379
 21
21.18886025331812
 31
0.0
  0
LINE
  5
20BDE
330
1A
100
AcDbEntity
  8
dim
100
AcDbLine
 10
131.073248440829
 20
21.66886025331405
 30
0.0
 11
131.073248440829
 21
20.70886025331493
 31
0.0
  0
LINE
  5
20BDF
330
1A
100
AcDbEntity
  8
dim
100
AcDbLine
 10
131.073248440829
 20
20.94886025331653
 30
0.0
 11
128.073248440829
 21
21.18886025331449
 31
0.0
  0
LINE
  5
20BE0
330
1A
100
AcDbEntity
  8
dim
100
AcDbLine
 10
131.073248440829
 20
21.42886025331609
 30
0.0
 11
128.073248440829
 21
21.18886025331449
 31
0.0
  0
LINE
  5
20BE1
330
1A
100
AcDbEntity
  8
dim
100
AcDbLine
 10
128.073248440829
 20
21.18886025331449
 30
0.0
 11
131.073248440829
 21
20.70886025331493
 31
0.0
  0
LINE
  5
20BE2
330
1A
100
AcDbEntity
  8
dim
100
AcDbLine
 10
131.073248440829
 20
21.66886025331405
 30
0.0
 11
128.073248440829
 21
21.18886025331449
 31
0.0
  0
LINE
  5
20BE3
330
1A
100
AcDbEntity
  8
dim
100
AcDbLine
 10
112.8857476908379
 20
19.70086025331693
 30
0.0
 11
112.8857476908379
 21
24.21286025331756
 31
0.0
  0
LINE
  5
20BE4
330
1A
100
AcDbEntity
  8
dim
100
AcDbLine
 10
128.0107476908306
 20
19.70086025331693
 30
0.0
 11
128.0107476908306
 21
24.21286025331756
 31
0.0
  0
LINE
  5
20BE5
330
1A
100
AcDbEntity
  8
dim
100
AcDbLine
 10
128.073248440829
 20
19.70086025331511
 30
0.0
 11
128.073248440829
 21
24.21286025331574
 31
0.0
  0
TEXT
  5
20BE6
330
1A
100
AcDbEntity
  8
elevation text
100
AcDbText
 10
131.2154182497123
 20
22.34806025331636
 30
0.0
 40
2.04
  1
1/8"
  7
ROMANS
 72
     1
 11
135.1011325354266
 21
22.34806025331636
 31
0.0
100
AcDbText
  0
LINE
  5
20BE7
330
1A
100
AcDbEntity
  8
dim
100
AcDbLine
 10
125.0107476908306
 20
21.66886025331769
 30
0.0
 11
125.0107476908306
 21
20.70886025331856
 31
0.0
  0
LINE
  5
20BE8
330
1A
100
AcDbEntity
  8
dim
100
AcDbLine
 10
125.0107476908306
 20
20.94886025331835
 30
0.0
 11
128.0107476908306
 21
21.18886025331812
 31
0.0
  0
LINE
  5
20BE9
330
1A
100
AcDbEntity
  8
dim
100
AcDbLine
 10
125.0107476908306
 20
21.42886025331791
 30
0.0
 11
128.0107476908306
 21
21.18886025331812
 31
0.0
  0
LINE
  5
20BEA
330
1A
100
AcDbEntity
  8
dim
100
AcDbLine
 10
128.0107476908306
 20
21.18886025331812
 30
0.0
 11
125.0107476908306
 21
20.70886025331856
 31
0.0
  0
LINE
  5
20BEB
330
1A
100
AcDbEntity
  8
dim
100
AcDbLine
 10
125.0107476908306
 20
21.66886025331769
 30
0.0
 11
128.0107476908306
 21
21.18886025331812
 31
0.0
  0
MTEXT
  5
20BEC
330
1A
100
AcDbEntity
  8
ELEVATION
100
AcDbMText
 10
121.5594512639291
 20
17.11753280276207
 30
0.0
 40
1.5
 41
18.70534557438077
 71
     5
 72
     5
  1
SINGLE ROW\PEND ELEVATION
  7
ELEVATION
 73
     1
 44
1.0
  0
MTEXT
  5
20BED
330
1A
100
AcDbEntity
  8
ELEVATION
100
AcDbMText
 10
44.86373874152195
 20
98.27486371182931
 30
0.0
 40
1.5
 41
29.66639667126583
 71
     3
 72
     5
  1
3-SINGLE PRONG HOOKS
  7
ELEVATION
 73
     1
 44
1.0
  0
MTEXT
  5
20BEE
330
1A
100
AcDbEntity
  8
ELEVATION
100
AcDbMText
 10
44.70815627586126
 20
102.3235026809088
 30
0.0
 40
1.5
 41
17.95216092238024
 71
     3
 72
     5
  1
NUMBER PLATE
  7
ELEVATION
 73
     1
 44
1.0
  0
MTEXT
  5
20BEF
330
1A
100
AcDbEntity
  8
ELEVATION
100
AcDbMText
 10
44.86373874152195
 20
93.24326004993963
 30
0.0
 40
1.5
 41
29.66639667126583
 71
     3
 72
     5
  1
SHELF
  7
ELEVATION
 73
     1
 44
1.0
1001
ACAD
1000
ACAD_MTEXT_DEFINED_HEIGHT_BEGIN
1070
    46
1040
1.051387094485107
1000
ACAD_MTEXT_DEFINED_HEIGHT_END
  0
MTEXT
  5
20BF0
330
1A
100
AcDbEntity
  8
ELEVATION
100
AcDbMText
 10
44.86367030049587
 20
68.37316174417719
 30
0.0
 40
1.5
 41
21.86809248175996
 71
     3
 72
     5
  1
RECESSED HANDLE
  7
ELEVATION
 73
     1
 44
1.0
  0
MTEXT
  5
20BF1
330
1A
100
AcDbEntity
  8
ELEVATION
100
AcDbMText
 10
44.86697003569133
 20
65.07137747004162
 30
0.0
 40
1.5
 41
21.11797386984599
 71
     3
 72
     5
  1
LOCK HOLE FILLER
  7
ELEVATION
 73
     1
 44
1.0
  0
MTEXT
  5
20BF2
330
1A
100
AcDbEntity
  8
ELEVATION
100
AcDbMText
 10
44.86373874152923
 20
39.91994172169689
 30
0.0
 40
1.5
 41
35.03720885620714
 71
     3
 72
     5
  1
DIAMOND PERFORATED DOORS
  7
ELEVATION
 73
     1
 44
1.0
  0
LINE
  5
20BF3
330
1A
100
AcDbEntity
  8
dim
100
AcDbLine
 10
57.95808761131775
 20
21.22709204593229
 30
0.0
 11
49.00515955762966
 21
21.22709204593229
 31
0.0
  0
LINE
  5
20BF4
330
1A
100
AcDbEntity
  8
dim
100
AcDbLine
 10
51.9580877938497
 20
21.70709208430162
 30
0.0
 11
51.9580877938497
 21
20.74709200756297
 31
0.0
  0
LINE
  5
20BF5
330
1A
100
AcDbEntity
  8
dim
100
AcDbLine
 10
51.9580877938497
 20
20.98709202670398
 30
0.0
 11
48.95808755391772
 21
21.22709204593229
 31
0.0
  0
LINE
  5
20BF6
330
1A
100
AcDbEntity
  8
dim
100
AcDbLine
 10
51.9580877938497
 20
21.46709206516062
 30
0.0
 11
48.95808755391772
 21
21.22709204593229
 31
0.0
  0
LINE
  5
20BF7
330
1A
100
AcDbEntity
  8
dim
100
AcDbLine
 10
48.95808755391772
 20
21.22709204593229
 30
0.0
 11
51.9580877938497
 21
20.74709200756297
 31
0.0
  0
LINE
  5
20BF8
330
1A
100
AcDbEntity
  8
dim
100
AcDbLine
 10
51.9580877938497
 20
21.70709208430162
 30
0.0
 11
48.95808755391772
 21
21.22709204593229
 31
0.0
  0
LINE
  5
20BF9
330
1A
100
AcDbEntity
  8
dim
100
AcDbLine
 10
48.95808755391772
 20
19.73909192688552
 30
0.0
 11
48.95808755391772
 21
24.25109228784823
 31
0.0
  0
LINE
  5
20BFA
330
1A
100
AcDbEntity
  8
dim
100
AcDbLine
 10
57.95808761131048
 20
19.73909192688552
 30
0.0
 11
57.95808761131048
 21
24.25109228784823
 31
0.0
  0
LINE
  5
20BFB
330
1A
100
AcDbEntity
  8
dim
100
AcDbLine
 10
54.95808737126935
 20
21.70709208430162
 30
0.0
 11
54.95808737126935
 21
20.74709200756297
 31
0.0
  0
LINE
  5
20BFC
330
1A
100
AcDbEntity
  8
dim
100
AcDbLine
 10
54.95808737126935
 20
20.98709202670398
 30
0.0
 11
57.95808761131775
 21
21.22709204593229
 31
0.0
  0
LINE
  5
20BFD
330
1A
100
AcDbEntity
  8
dim
100
AcDbLine
 10
54.95808737126935
 20
21.46709206516062
 30
0.0
 11
57.95808761131775
 21
21.22709204593229
 31
0.0
  0
LINE
  5
20BFE
330
1A
100
AcDbEntity
  8
dim
100
AcDbLine
 10
57.95808761131775
 20
21.22709204593229
 30
0.0
 11
54.95808737126935
 21
20.74709200756297
 31
0.0
  0
LINE
  5
20BFF
330
1A
100
AcDbEntity
  8
dim
100
AcDbLine
 10
54.95808737126935
 20
21.70709208430162
 30
0.0
 11
57.95808761131775
 21
21.22709204593229
 31
0.0
  0
TEXT
  5
20C00
330
1A
100
AcDbEntity
  8
elevation text
100
AcDbText
 10
52.52147264294277
 20
22.45729213868072
 30
0.0
 40
1.75
  1
9"
  7
ROMANS
 72
     1
 11
53.97980597627611
 21
22.45729213868072
 31
0.0
100
AcDbText
  0
LINE
  5
20C01
330
1A
100
AcDbEntity
  8
dim
100
AcDbLine
 10
66.95808761131775
 20
21.22709204593229
 30
0.0
 11
58.00515955762967
 21
21.22709204593229
 31
0.0
  0
LINE
  5
20C02
330
1A
100
AcDbEntity
  8
dim
100
AcDbLine
 10
60.9580877938497
 20
21.70709208430162
 30
0.0
 11
60.9580877938497
 21
20.74709200756297
 31
0.0
  0
LINE
  5
20C03
330
1A
100
AcDbEntity
  8
dim
100
AcDbLine
 10
60.9580877938497
 20
20.98709202670398
 30
0.0
 11
57.95808755391772
 21
21.22709204593229
 31
0.0
  0
LINE
  5
20C04
330
1A
100
AcDbEntity
  8
dim
100
AcDbLine
 10
60.9580877938497
 20
21.46709206516062
 30
0.0
 11
57.95808755391772
 21
21.22709204593229
 31
0.0
  0
LINE
  5
20C05
330
1A
100
AcDbEntity
  8
dim
100
AcDbLine
 10
57.95808755391772
 20
21.22709204593229
 30
0.0
 11
60.9580877938497
 21
20.74709200756297
 31
0.0
  0
LINE
  5
20C06
330
1A
100
AcDbEntity
  8
dim
100
AcDbLine
 10
60.9580877938497
 20
21.70709208430162
 30
0.0
 11
57.95808755391772
 21
21.22709204593229
 31
0.0
  0
LINE
  5
20C07
330
1A
100
AcDbEntity
  8
dim
100
AcDbLine
 10
57.95808755391772
 20
19.73909192688552
 30
0.0
 11
57.95808755391772
 21
24.25109228784823
 31
0.0
  0
LINE
  5
20C08
330
1A
100
AcDbEntity
  8
dim
100
AcDbLine
 10
66.95808761131047
 20
19.73909192688552
 30
0.0
 11
66.95808761131047
 21
24.25109228784823
 31
0.0
  0
LINE
  5
20C09
330
1A
100
AcDbEntity
  8
dim
100
AcDbLine
 10
63.95808737126936
 20
21.70709208430162
 30
0.0
 11
63.95808737126936
 21
20.74709200756297
 31
0.0
  0
LINE
  5
20C0A
330
1A
100
AcDbEntity
  8
dim
100
AcDbLine
 10
63.95808737126936
 20
20.98709202670398
 30
0.0
 11
66.95808761131775
 21
21.22709204593229
 31
0.0
  0
LINE
  5
20C0B
330
1A
100
AcDbEntity
  8
dim
100
AcDbLine
 10
63.95808737126936
 20
21.46709206516062
 30
0.0
 11
66.95808761131775
 21
21.22709204593229
 31
0.0
  0
LINE
  5
20C0C
330
1A
100
AcDbEntity
  8
dim
100
AcDbLine
 10
66.95808761131775
 20
21.22709204593229
 30
0.0
 11
63.95808737126936
 21
20.74709200756297
 31
0.0
  0
LINE
  5
20C0D
330
1A
100
AcDbEntity
  8
dim
100
AcDbLine
 10
63.95808737126936
 20
21.70709208430162
 30
0.0
 11
66.95808761131775
 21
21.22709204593229
 31
0.0
  0
TEXT
  5
20C0E
330
1A
100
AcDbEntity
  8
elevation text
100
AcDbText
 10
61.71318209287953
 20
22.45729213868072
 30
0.0
 40
1.75
  1
9"
  7
ROMANS
 72
     1
 11
63.17151542621286
 21
22.45729213868072
 31
0.0
100
AcDbText
  0
MTEXT
  5
20C0F
330
1A
100
AcDbEntity
  8
ELEVATION
100
AcDbMText
 10
73.46683846705127
 20
22.37045440587826
 30
0.0
 40
1.5
 41
15.22806135042628
 71
     5
 72
     5
  1
{\H0.8333x;INTERIOR\PELEVATION}
  7
ELEVATION
 73
     1
 44
1.0
  0
LINE
  5
20C10
330
1A
100
AcDbEntity
  8
wall
100
AcDbLine
 10
128.0732484408363
 20
36.40113775653663
 30
0.0
 11
130.3292664888286
 21
38.65715580454344
 31
0.0
  0
LINE
  5
20C11
330
1A
100
AcDbEntity
  8
wall
100
AcDbLine
 10
128.0732484408363
 20
32.40113775653663
 30
0.0
 11
130.3292664888286
 21
34.65715580454344
 31
0.0
  0
LINE
  5
20C12
330
1A
100
AcDbEntity
  8
wall
100
AcDbLine
 10
128.0732484408363
 20
34.40113775653663
 30
0.0
 11
130.3292664888286
 21
36.65715580454344
 31
0.0
  0
LINE
  5
20C13
330
1A
100
AcDbEntity
  8
wall
100
AcDbLine
 10
128.0732484408363
 20
40.40113775653662
 30
0.0
 11
130.3292664888286
 21
42.65715580454343
 31
0.0
  0
LINE
  5
20C14
330
1A
100
AcDbEntity
  8
wall
100
AcDbLine
 10
128.0732484408363
 20
38.40113775653663
 30
0.0
 11
130.3292664888286
 21
40.65715580454344
 31
0.0
  0
LINE
  5
20C15
330
1A
100
AcDbEntity
  8
wall
100
AcDbLine
 10
128.0732484408363
 20
44.40113775653663
 30
0.0
 11
130.3292664888286
 21
46.65715580454343
 31
0.0
  0
LINE
  5
20C16
330
1A
100
AcDbEntity
  8
wall
100
AcDbLine
 10
128.0732484408363
 20
42.40113775653663
 30
0.0
 11
130.3292664888286
 21
44.65715580454343
 31
0.0
  0
LINE
  5
20C17
330
1A
100
AcDbEntity
  8
wall
100
AcDbLine
 10
128.0732484408363
 20
48.40113775653662
 30
0.0
 11
130.3292664888286
 21
50.65715580454344
 31
0.0
  0
LINE
  5
20C18
330
1A
100
AcDbEntity
  8
wall
100
AcDbLine
 10
128.0732484408363
 20
46.40113775653662
 30
0.0
 11
130.3292664888286
 21
48.65715580454343
 31
0.0
  0
LINE
  5
20C19
330
1A
100
AcDbEntity
  8
wall
100
AcDbLine
 10
128.0732484408363
 20
52.40113775653663
 30
0.0
 11
130.3292664888286
 21
54.65715580454343
 31
0.0
  0
LINE
  5
20C1A
330
1A
100
AcDbEntity
  8
wall
100
AcDbLine
 10
128.0732484408363
 20
50.40113775653662
 30
0.0
 11
130.3292664888286
 21
52.65715580454344
 31
0.0
  0
LINE
  5
20C1B
330
1A
100
AcDbEntity
  8
wall
100
AcDbLine
 10
128.0732484408363
 20
56.40113775653663
 30
0.0
 11
130.3292664888286
 21
58.65715580454343
 31
0.0
  0
LINE
  5
20C1C
330
1A
100
AcDbEntity
  8
wall
100
AcDbLine
 10
128.0732484408363
 20
54.40113775653663
 30
0.0
 11
130.3292664888286
 21
56.65715580454343
 31
0.0
  0
LINE
  5
20C1D
330
1A
100
AcDbEntity
  8
wall
100
AcDbLine
 10
128.0732484408363
 20
58.40113775653662
 30
0.0
 11
130.3292664888286
 21
60.65715580454344
 31
0.0
  0
LINE
  5
20C1E
330
1A
100
AcDbEntity
  8
wall
100
AcDbLine
 10
128.0732484408363
 20
60.40113775653662
 30
0.0
 11
130.3292664888286
 21
62.65715580454344
 31
0.0
  0
LINE
  5
20C1F
330
1A
100
AcDbEntity
  8
wall
100
AcDbLine
 10
128.0732484408363
 20
64.40113775653663
 30
0.0
 11
130.3292664888286
 21
66.65715580454343
 31
0.0
  0
LINE
  5
20C20
330
1A
100
AcDbEntity
  8
wall
100
AcDbLine
 10
128.0732484408363
 20
62.40113775653663
 30
0.0
 11
130.3292664888286
 21
64.65715580454343
 31
0.0
  0
LINE
  5
20C21
330
1A
100
AcDbEntity
  8
wall
100
AcDbLine
 10
128.0732484408363
 20
68.40113775653662
 30
0.0
 11
130.3292664888286
 21
70.65715580454344
 31
0.0
  0
LINE
  5
20C22
330
1A
100
AcDbEntity
  8
wall
100
AcDbLine
 10
128.0732484408363
 20
66.40113775653663
 30
0.0
 11
130.3292664888286
 21
68.65715580454343
 31
0.0
  0
LINE
  5
20C23
330
1A
100
AcDbEntity
  8
wall
100
AcDbLine
 10
128.0732484408363
 20
72.40113775653663
 30
0.0
 11
130.3292664888286
 21
74.65715580454343
 31
0.0
  0
LINE
  5
20C24
330
1A
100
AcDbEntity
  8
wall
100
AcDbLine
 10
128.0732484408363
 20
70.40113775653662
 30
0.0
 11
130.3292664888286
 21
72.65715580454344
 31
0.0
  0
LINE
  5
20C25
330
1A
100
AcDbEntity
  8
wall
100
AcDbLine
 10
128.0732484408363
 20
76.40113775653663
 30
0.0
 11
130.3292664888286
 21
78.65715580454343
 31
0.0
  0
LINE
  5
20C26
330
1A
100
AcDbEntity
  8
wall
100
AcDbLine
 10
128.0732484408363
 20
74.40113775653663
 30
0.0
 11
130.3292664888286
 21
76.65715580454343
 31
0.0
  0
LINE
  5
20C27
330
1A
100
AcDbEntity
  8
wall
100
AcDbLine
 10
128.0732484408363
 20
78.40113775653662
 30
0.0
 11
130.3292664888286
 21
80.65715580454343
 31
0.0
  0
LINE
  5
20C28
330
1A
100
AcDbEntity
  8
wall
100
AcDbLine
 10
128.0732484408363
 20
82.40113775653663
 30
0.0
 11
130.3292664888286
 21
84.65715580454343
 31
0.0
  0
LINE
  5
20C29
330
1A
100
AcDbEntity
  8
wall
100
AcDbLine
 10
128.0732484408363
 20
80.40113775653663
 30
0.0
 11
130.3292664888286
 21
82.65715580454344
 31
0.0
  0
LINE
  5
20C2A
330
1A
100
AcDbEntity
  8
wall
100
AcDbLine
 10
128.0732484408363
 20
84.40113775653662
 30
0.0
 11
130.3292664888286
 21
86.65715580454344
 31
0.0
  0
LINE
  5
20C2B
330
1A
100
AcDbEntity
  8
wall
100
AcDbLine
 10
128.0732484408363
 20
86.40113775653663
 30
0.0
 11
130.3292664888286
 21
88.65715580454343
 31
0.0
  0
LINE
  5
20C2C
330
1A
100
AcDbEntity
  8
wall
100
AcDbLine
 10
128.0732484408363
 20
90.40113775653663
 30
0.0
 11
130.3292664888286
 21
92.65715580454344
 31
0.0
  0
LINE
  5
20C2D
330
1A
100
AcDbEntity
  8
wall
100
AcDbLine
 10
128.0732484408363
 20
88.40113775653662
 30
0.0
 11
130.3292664888286
 21
90.65715580454343
 31
0.0
  0
LINE
  5
20C2E
330
1A
100
AcDbEntity
  8
wall
100
AcDbLine
 10
128.0732484408363
 20
94.40113775653662
 30
0.0
 11
130.3292664888286
 21
96.65715580454344
 31
0.0
  0
LINE
  5
20C2F
330
1A
100
AcDbEntity
  8
wall
100
AcDbLine
 10
128.0732484408363
 20
92.40113775653663
 30
0.0
 11
130.3292664888286
 21
94.65715580454343
 31
0.0
  0
LINE
  5
20C30
330
1A
100
AcDbEntity
  8
wall
100
AcDbLine
 10
128.0732484408363
 20
98.40113775653662
 30
0.0
 11
130.3292664888286
 21
100.6571558045434
 31
0.0
  0
LINE
  5
20C31
330
1A
100
AcDbEntity
  8
wall
100
AcDbLine
 10
128.0732484408363
 20
96.40113775653663
 30
0.0
 11
130.3292664888286
 21
98.65715580454343
 31
0.0
  0
LINE
  5
20C32
330
1A
100
AcDbEntity
  8
wall
100
AcDbLine
 10
128.0732484408363
 20
102.4011377565366
 30
0.0
 11
130.3292664888286
 21
104.6571558045434
 31
0.0
  0
LINE
  5
20C33
330
1A
100
AcDbEntity
  8
wall
100
AcDbLine
 10
128.0732484408363
 20
100.4011377565366
 30
0.0
 11
130.3292664888286
 21
102.6571558045434
 31
0.0
  0
LINE
  5
20C34
330
1A
100
AcDbEntity
  8
wall
100
AcDbLine
 10
128.0732484408363
 20
104.4011377565366
 30
0.0
 11
130.3292664888286
 21
106.6571558045434
 31
0.0
  0
LINE
  5
20C35
330
1A
100
AcDbEntity
  8
wall
100
AcDbLine
 10
128.0732484408363
 20
106.4011377565366
 30
0.0
 11
130.0732484408217
 21
108.4011377565366
 31
0.0
  0
ENDSEC
  0
SECTION
  2
OBJECTS
  0
DICTIONARY
  5
C
330
0
100
AcDbDictionary
281
     1
  3
ACAD_CIP_PREVIOUS_PRODUCT_INFO
350
1954F
  3
ACAD_COLOR
350
152C8
  3
ACAD_DETAILVIEWSTYLE
350
19549
  3
ACAD_DGNLINESTYLECOMP
350
1E8EC
  3
ACAD_GROUP
350
D
  3
ACAD_IMAGE_DICT
350
D338
  3
ACAD_LAYOUT
350
5D96
  3
ACAD_MATERIAL
350
152C7
  3
ACAD_MLEADERSTYLE
350
18BCA
  3
ACAD_MLINESTYLE
350
E
  3
ACAD_PLOTSETTINGS
350
5D97
  3
ACAD_PLOTSTYLENAME
350
5D94
  3
ACAD_SCALELIST
350
18BA8
  3
ACAD_SECTIONVIEWSTYLE
350
19546
  3
ACAD_TABLESTYLE
350
1835B
  3
ACAD_VISUALSTYLE
350
1834A
  3
AcadDim
350
16861
  3
ACDB_RECOMPOSE_DATA
350
20C89
  3
AcDbVariableDictionary
350
F6BD
  3
AEC_PROPERTY_SET_DEFS
350
19250
  3
BNS_SELSET
350
54CC
  0
DICTIONARY
  5
1857C
330
8
100
AcDbDictionary
280
     1
281
     1
  0
DICTIONARY
  5
18C2C
330
2
100
AcDbDictionary
280
     1
281
     1
  3
ACAD_LAYERSTATES
360
18C2D
  0
DICTIONARY
  5
18BD0
330
F
100
AcDbDictionary
280
     1
281
     1
  3
ADSK_XREC_LAYER_RECONCILED
360
18BD1
  0
DICTIONARY
  5
18BD2
330
36
100
AcDbDictionary
280
     1
281
     1
  3
ADSK_XREC_LAYER_RECONCILED
360
18BD3
  0
DICTIONARY
  5
18BD6
330
14178
100
AcDbDictionary
280
     1
281
     1
  3
ADSK_XREC_LAYER_RECONCILED
360
18BD7
  0
DICTIONARY
  5
1A809
330
1A808
100
AcDbDictionary
280
     1
281
     1
  0
DICTIONARY
  5
1A80B
330
1A80A
100
AcDbDictionary
280
     1
281
     1
  0
DICTIONARY
  5
1A80D
330
1A80C
100
AcDbDictionary
280
     1
281
     1
  0
DICTIONARY
  5
1A80F
330
1A80E
100
AcDbDictionary
280
     1
281
     1
  0
DICTIONARY
  5
1E73C
330
1E73B
100
AcDbDictionary
280
     1
281
     1
  0
DICTIONARY
  5
1E740
330
1E73F
100
AcDbDictionary
280
     1
281
     1
  0
DICTIONARY
  5
1E742
330
1E741
100
AcDbDictionary
280
     1
281
     1
  0
DICTIONARY
  5
1E745
330
1E744
100
AcDbDictionary
280
     1
281
     1
  0
DICTIONARY
  5
1E747
330
1E746
100
AcDbDictionary
280
     1
281
     1
  0
DICTIONARY
  5
1E749
330
1E748
100
AcDbDictionary
280
     1
281
     1
  0
DICTIONARY
  5
1EFB9
330
1EFB8
100
AcDbDictionary
280
     1
281
     1
  0
DICTIONARY
  5
183EF
330
1A
100
AcDbDictionary
280
     1
281
     1
  3
ACAD_SORTENTS
360
183F0
  0
DICTIONARY
  5
1E708
330
1E707
100
AcDbDictionary
280
     1
281
     1
  3
ACAD_SORTENTS
360
1E709
  0
DICTIONARY
  5
1E72D
330
1E72C
100
AcDbDictionary
280
     1
281
     1
  3
ACAD_SORTENTS
360
1E72E
  0
XRECORD
  5
1954F
102
{ACAD_REACTORS
330
C
102
}
330
C
100
AcDbXrecord
280
     1
300
AMECH_PP
300
2013
300
AMECH_PP_F_S
  0
DICTIONARY
  5
152C8
102
{ACAD_REACTORS
330
C
102
}
330
C
100
AcDbDictionary
281
     1
  0
DICTIONARY
  5
19549
102
{ACAD_REACTORS
330
C
102
}
330
C
100
AcDbDictionary
281
     1
  3
Imperial24
350
1954A
  0
DICTIONARY
  5
1E8EC
102
{ACAD_REACTORS
330
C
102
}
330
C
100
AcDbDictionary
280
     1
281
     1
  3
Base$0$base5.14.12$0$DGN2
360
1E8ED
  3
Base$0$base5.14.12$0$DGN3
360
1E8EE
  3
Base$0$DGN2
360
1E8EF
  3
Base$0$DGN3
360
1E8F0
  3
Base$0$DGN7
360
1E8F1
  3
Base$0$etopo$0$DGN2
360
1E8F2
  3
Base$0$etopo$0$DGN3
360
1E8F3
  3
Base$0$X103294002ebs01$0$DGN2
360
1E8F4
  3
Base$0$X103294002ebs01$0$DGN3
360
1E8F5
  3
Base$0$X103294002ebs01$0$etopo$0$DGN2
360
1E8F6
  3
Base$0$X103294002ebs01$0$etopo$0$DGN3
360
1E8F7
  3
Base$0$X103294002pbs01$0$DGN2
360
1E8F8
  3
Base$0$X103294002pbs01$0$DGN3
360
1E8F9
  3
Base$0$X103294002pbs01$0$etopo$0$DGN2
360
1E8FA
  3
Base$0$X103294002pbs01$0$etopo$0$DGN3
360
1E8FB
  3
Base$0$X103294002pto01$0$DGN2
360
1E8FC
  3
Base$0$X103294002pto01$0$DGN3
360
1E8FD
  3
Base$0$X103294002pto01$0$etopo$0$DGN2
360
1E8FE
  3
Base$0$X103294002pto01$0$etopo$0$DGN3
360
1E8FF
  3
base5.14.12$0$DGN2
360
1E900
  3
base5.14.12$0$DGN3
360
1E901
  3
DGN2
360
1E902
  3
DGN3
360
1E903
  3
DGN7
360
1E904
  3
etopo$0$DGN2
360
1E905
  3
etopo$0$DGN3
360
1E906
  3
TB_24X36_SUB$0$base5.14.12$0$DGN2
360
1E907
  3
TB_24X36_SUB$0$base5.14.12$0$DGN3
360
1E908
  3
TB_24X36_SUB$0$DGN2
360
1E909
  3
TB_24X36_SUB$0$DGN3
360
1E90A
  3
TB_24X36_SUB$0$DGN7
360
1E90B
  3
TB_24X36_SUB$0$etopo$0$DGN2
360
1E90C
  3
TB_24X36_SUB$0$etopo$0$DGN3
360
1E90D
  3
TB_24X36_SUB$0$X103294002ebs01$0$DGN2
360
1E90E
  3
TB_24X36_SUB$0$X103294002ebs01$0$DGN3
360
1E90F
  3
TB_24X36_SUB$0$X103294002ebs01$0$etopo$0$DGN2
360
1E910
  3
TB_24X36_SUB$0$X103294002ebs01$0$etopo$0$DGN3
360
1E911
  3
TB_24X36_SUB$0$X103294002pbs01$0$DGN2
360
1E912
  3
TB_24X36_SUB$0$X103294002pbs01$0$DGN3
360
1E913
  3
TB_24X36_SUB$0$X103294002pbs01$0$etopo$0$DGN2
360
1E914
  3
TB_24X36_SUB$0$X103294002pbs01$0$etopo$0$DGN3
360
1E915
  3
TB_24X36_SUB$0$X103294002pto01$0$DGN2
360
1E916
  3
TB_24X36_SUB$0$X103294002pto01$0$DGN3
360
1E917
  3
TB_24X36_SUB$0$X103294002pto01$0$etopo$0$DGN2
360
1E918
  3
TB_24X36_SUB$0$X103294002pto01$0$etopo$0$DGN3
360
1E919
  3
Topo$0$base5.14.12$0$DGN2
360
1E91A
  3
Topo$0$base5.14.12$0$DGN3
360
1E91B
  3
Topo$0$DGN2
360
1E91C
  3
Topo$0$DGN3
360
1E91D
  3
Topo$0$DGN7
360
1E91E
  3
Topo$0$etopo$0$DGN2
360
1E91F
  3
Topo$0$etopo$0$DGN3
360
1E920
  3
Topo$0$X103294002ebs01$0$DGN2
360
1E921
  3
Topo$0$X103294002ebs01$0$DGN3
360
1E922
  3
Topo$0$X103294002ebs01$0$etopo$0$DGN2
360
1E923
  3
Topo$0$X103294002ebs01$0$etopo$0$DGN3
360
1E924
  3
Topo$0$X103294002pbs01$0$DGN2
360
1E925
  3
Topo$0$X103294002pbs01$0$DGN3
360
1E926
  3
Topo$0$X103294002pbs01$0$etopo$0$DGN2
360
1E927
  3
Topo$0$X103294002pbs01$0$etopo$0$DGN3
360
1E928
  3
Topo$0$X103294002pto01$0$DGN2
360
1E929
  3
Topo$0$X103294002pto01$0$DGN3
360
1E92A
  3
Topo$0$X103294002pto01$0$etopo$0$DGN2
360
1E92B
  3
Topo$0$X103294002pto01$0$etopo$0$DGN3
360
1E92C
  3
X103294002ebs01$0$DGN2
360
1E92D
  3
X103294002ebs01$0$DGN3
360
1E92E
  3
X103294002ebs01$0$etopo$0$DGN2
360
1E92F
  3
X103294002ebs01$0$etopo$0$DGN3
360
1E930
  3
X103294002pbs01$0$DGN2
360
1E931
  3
X103294002pbs01$0$DGN3
360
1E932
  3
X103294002pbs01$0$etopo$0$DGN2
360
1E933
  3
X103294002pbs01$0$etopo$0$DGN3
360
1E934
  3
X103294002pto01$0$DGN2
360
1E935
  3
X103294002pto01$0$DGN3
360
1E936
  3
X103294002pto01$0$etopo$0$DGN2
360
1E937
  3
X103294002pto01$0$etopo$0$DGN3
360
1E938
  0
DICTIONARY
  5
D
102
{ACAD_REACTORS
330
C
102
}
330
C
100
AcDbDictionary
281
     1
  0
DICTIONARY
  5
D338
102
{ACAD_REACTORS
330
C
102
}
330
C
100
AcDbDictionary
281
     1
  3
BENCH_WITH_BRACKET_SUPPORT
350
D339
  0
DICTIONARY
  5
5D96
102
{ACAD_REACTORS
330
C
102
}
330
C
100
AcDbDictionary
281
     1
  3
Layout1
350
5D99
  3
Model
350
5D98
  0
DICTIONARY
  5
152C7
102
{ACAD_REACTORS
330
C
102
}
330
C
100
AcDbDictionary
281
     1
  3
ByBlock
350
18348
  3
ByLayer
350
18347
  3
Global
350
18349
  0
DICTIONARY
  5
18BCA
102
{ACAD_REACTORS
330
C
102
}
330
C
100
AcDbDictionary
281
     1
  3
Standard
350
18BCB
  0
DICTIONARY
  5
E
102
{ACAD_REACTORS
330
C
102
}
330
C
100
AcDbDictionary
281
     1
  3
STANDARD
350
13
  0
DICTIONARY
  5
5D97
102
{ACAD_REACTORS
330
C
102
}
330
C
100
AcDbDictionary
281
     1
  3
LASERJET5000 (MODEL)
350
7F14
  3
OCE 22x34 (MODEL)
350
D238
  0
ACDBDICTIONARYWDFLT
  5
5D94
102
{ACAD_REACTORS
330
C
102
}
330
C
100
AcDbDictionary
281
     1
  3
Normal
350
5D95
100
AcDbDictionaryWithDefault
340
5D95
  0
DICTIONARY
  5
18BA8
102
{ACAD_REACTORS
330
C
102
}
330
C
100
AcDbDictionary
281
     1
  3
A0
350
18BA9
  3
A1
350
18BAA
  3
A2
350
18BAB
  3
A3
350
18BAC
  3
A4
350
18BAD
  3
A5
350
18BAE
  3
A6
350
18BAF
  3
A7
350
18BB0
  3
A8
350
18BB1
  3
A9
350
18BB2
  3
B0
350
18BB3
  3
B1
350
18BB4
  3
B2
350
18BB5
  3
B3
350
18BB6
  3
B4
350
18BB7
  3
B5
350
18BB8
  3
B6
350
18BB9
  3
B7
350
18BBA
  3
B8
350
18BBB
  3
B9
350
18BBC
  3
C0
350
18BBD
  3
C1
350
18BBE
  3
C2
350
18BBF
  3
C3
350
18BC0
  3
C4
350
18BC1
  3
C5
350
18BC2
  3
C6
350
18BC3
  3
C7
350
18BC4
  3
C8
350
18BC5
  3
C9
350
18BC6
  3
D0
350
18BC7
  3
D1
350
18BC8
  3
D2
350
18BC9
  0
DICTIONARY
  5
19546
102
{ACAD_REACTORS
330
C
102
}
330
C
100
AcDbDictionary
281
     1
  3
Imperial24
350
19548
  0
DICTIONARY
  5
1835B
102
{ACAD_REACTORS
330
C
102
}
330
C
100
AcDbDictionary
281
     1
  3
Standard
350
1835C
  0
DICTIONARY
  5
1834A
102
{ACAD_REACTORS
330
C
102
}
330
C
100
AcDbDictionary
281
     1
  3
2dWireframe
350
18350
  3
3D Hidden
350
18B33
  3
3dWireframe
350
18B32
  3
Basic
350
1834F
  3
Brighten
350
18356
  3
ColorChange
350
1835A
  3
Conceptual
350
18B34
  3
Dim
350
18355
  3
EdgeColorOff
350
18BA7
  3
Facepattern
350
18359
  3
Flat
350
1834B
  3
FlatWithEdges
350
1834C
  3
Gouraud
350
1834D
  3
GouraudWithEdges
350
1834E
  3
Hidden
350
19540
  3
JitterOff
350
18BA5
  3
Linepattern
350
18358
  3
OverhangOff
350
18BA6
  3
Realistic
350
18B35
  3
Shaded
350
19545
  3
Shaded with edges
350
19544
  3
Shades of Gray
350
19541
  3
Sketchy
350
19542
  3
Thicken
350
18357
  3
Wireframe
350
1953F
  3
X-Ray
350
19543
  0
XRECORD
  5
16861
102
{ACAD_REACTORS
330
C
102
}
330
C
100
AcDbXrecord
280
     1
 90
   990106
  3

 60
     0
 61
     0
 62
     1
 63
     3
 64
     0
 65
     0
 66
     0
 67
     3
 68
     1
 69
     0
 70
     0
 71
     0
 72
     0
 40
0.0
170
     0
340
0
  0
XRECORD
  5
20C89
102
{ACAD_REACTORS
330
C
102
}
330
C
100
AcDbXrecord
280
     1
 90
        1
330
1835C
  0
DICTIONARY
  5
F6BD
102
{ACAD_REACTORS
330
C
102
}
330
C
100
AcDbDictionary
281
     1
  3
CANNOSCALE
350
1953D
  3
CMLEADERSTYLE
350
1953C
  3
CTABLESTYLE
350
185A4
  3
CVIEWDETAILSTYLE
350
1959E
  3
CVIEWSECTIONSTYLE
350
1959F
  3
SORTENTS
350
F6BE
  0
DICTIONARY
  5
19250
102
{ACAD_REACTORS
330
C
102
}
330
C
100
AcDbDictionary
281
     1
  0
DICTIONARY
  5
54CC
102
{ACAD_REACTORS
330
C
102
}
330
0
100
AcDbDictionary
281
     1
  3
BNS_SS01
350
5508
  3
BNS_SS02
350
5509
  3
BNS_SS03
350
550A
  3
BNS_SS04
350
550B
  0
DICTIONARY
  5
18C2D
102
{ACAD_REACTORS
330
18C2C
102
}
330
18C2C
100
AcDbDictionary
281
     1
  0
XRECORD
  5
18BD1
102
{ACAD_REACTORS
330
18BD0
102
}
330
18BD0
100
AcDbXrecord
280
     1
290
     1
  0
XRECORD
  5
18BD3
102
{ACAD_REACTORS
330
18BD2
102
}
330
18BD2
100
AcDbXrecord
280
     1
290
     1
  0
XRECORD
  5
18BD7
102
{ACAD_REACTORS
330
18BD6
102
}
330
18BD6
100
AcDbXrecord
280
     1
290
     1
  0
SORTENTSTABLE
  5
183F0
102
{ACAD_REACTORS
330
183EF
102
}
330
183EF
100
AcDbSortentsTable
330
1A
331
16791
  5
16791
331
17A1C
  5
17F3F
  0
SORTENTSTABLE
  5
1E709
102
{ACAD_REACTORS
330
1E708
102
}
330
1E708
100
AcDbSortentsTable
330
1E707
  0
SORTENTSTABLE
  5
1E72E
102
{ACAD_REACTORS
330
1E72D
102
}
330
1E72D
100
AcDbSortentsTable
330
1E72C
  0
ACDBDETAILVIEWSTYLE
  5
1954A
102
{ACAD_REACTORS
330
19549
102
}
330
19549
100
AcDbModelDocViewStyle
 70
     0
  3
Imperial24
290
     0
100
AcDbDetailViewStyle
 70
     0
 71
     0
 90
        3
 71
     1
340
10
 62
   256
 40
0.24
340
0
 62
   256
 40
0.24
300

 40
0.36
280
     3
 71
     2
340
16
 90
       25
 62
   256
 71
     3
340
10
 62
   256
 40
0.24
 90
        1
 40
0.75
 90
        1
300
%<\AcVar ViewType \f "%tc1">% %<\AcVar ViewDetailId>%\PSCALE %<\AcVar ViewScale \f "%sn">%
 71
     4
340
16
 90
       25
 62
   256
340
16
 90
       25
 62
   256
280
     0
  0
IMAGEDEF
  5
D339
102
{ACAD_REACTORS
330
D338
102
}
330
D338
100
AcDbRasterImageDef
 90
        0
  1
C:\Lockers\Ll4802\bench with bracket support.tif
 10
1676.0
 20
893.0
 11
0.127
 21
0.127
280
     1
281
     5
  0
LAYOUT
  5
5D99
102
{ACAD_REACTORS
330
5D96
102
}
330
5D96
100
AcDbPlotSettings
  1

  2
HP LaserJet 4MV
  4

  6

 40
0.0
 41
0.0
 42
0.0
 43
0.0
 44
0.0
 45
0.0
 46
0.0
 47
0.0
 48
0.0
 49
0.0
140
0.0
141
0.0
142
1.0
143
1.0
 70
   688
 72
     0
 73
     0
 74
     5
  7

 75
    16
147
1.0
 76
     0
 77
     2
 78
   300
148
0.0
149
0.0
100
AcDbLayout
  1
Layout1
 70
     1
 71
     1
 10
0.0
 20
0.0
 11
12.0
 21
9.0
 12
0.0
 22
0.0
 32
0.0
 14
1.000000000000000E+20
 24
1.000000000000000E+20
 34
1.000000000000000E+20
 15
-1.000000000000000E+20
 25
-1.000000000000000E+20
 35
-1.000000000000000E+20
146
0.0
 13
0.0
 23
0.0
 33
0.0
 16
1.0
 26
0.0
 36
0.0
 17
0.0
 27
1.0
 37
0.0
 76
     0
330
17
  0
LAYOUT
  5
5D98
102
{ACAD_XDICTIONARY
360
19508
102
}
102
{ACAD_REACTORS
330
5D96
102
}
330
5D96
100
AcDbPlotSettings
  1

  2
\\REPUBLIC01\LJ5000 CAD
  4
Letter
  6

 40
7.143749713897705
 41
6.720394611358642
 42
7.14373779296875
 43
3.757080078125
 44
215.8999938964844
 45
279.3999938964844
 46
34.1028580007554
 47
42.37165097832487
 48
0.0
 49
0.0
140
0.0
141
0.0
142
1.0
143
1.0
 70
 11956
 72
     0
 73
     1
 74
     1
  7
monochrome.ctb
 75
    16
147
1.0
 76
     1
 77
     2
 78
   300
148
-343.5033005404355
149
-709.2483680669708
100
AcDbLayout
  1
Model
 70
     1
 71
     0
 10
0.0
 20
0.0
 11
12.0
 21
9.0
 12
0.0
 22
0.0
 32
0.0
 14
0.0
 24
0.0
 34
0.0
 15
0.0
 25
0.0
 35
0.0
146
0.0
 13
0.0
 23
0.0
 33
0.0
 16
1.0
 26
0.0
 36
0.0
 17
0.0
 27
1.0
 37
0.0
 76
     0
330
1A
331
18345
1001
ACAD_PSEXT
1000
\\REPUBLIC01\LJ5000 CAD
1000
HP LaserJet 5000 Series PCL6
1000
Cad room
1000

1070
     0
  0
MATERIAL
  5
18348
102
{ACAD_XDICTIONARY
360
20C8C
102
}
102
{ACAD_REACTORS
330
152C7
102
}
330
152C7
100
AcDbMaterial
  1
ByBlock
 73
     1
 78
     1
172
     1
176
     1
270
     1
274
     1
  0
MATERIAL
  5
18347
102
{ACAD_XDICTIONARY
360
20C8A
102
}
102
{ACAD_REACTORS
330
152C7
102
}
330
152C7
100
AcDbMaterial
  1
ByLayer
 73
     1
 78
     1
172
     1
176
     1
270
     1
274
     1
  0
MATERIAL
  5
18349
102
{ACAD_XDICTIONARY
360
20C8E
102
}
102
{ACAD_REACTORS
330
152C7
102
}
330
152C7
100
AcDbMaterial
  1
Global
 73
     1
 78
     1
172
     1
176
     1
270
     1
274
     1
  0
MLEADERSTYLE
  5
18BCB
102
{ACAD_REACTORS
330
18BCA
102
}
330
18BCA
100
AcDbMLeaderStyle
170
     2
171
     1
172
     0
 90
        2
 40
0.0
 41
0.0
173
     1
 91
-1056964608
340
14
 92
       -2
290
     1
 42
0.09
291
     1
 43
0.36
  3
Standard
 44
0.18
300

342
10
174
     1
178
     6
175
     1
176
     0
 93
-1056964608
 45
0.18
292
     0
297
     0
 46
0.18
 94
-1056964608
 47
1.0
 49
1.0
140
1.0
293
     1
141
0.0
294
     1
177
     0
142
1.0
295
     0
296
     0
143
0.125
1001
ACAD_MLEADERVER
1070
     2
  0
MLINESTYLE
  5
13
102
{ACAD_REACTORS
330
E
102
}
330
E
100
AcDbMlineStyle
  2
STANDARD
 70
     0
  3

 62
     0
 51
90.0
 52
90.0
 71
     2
 49
0.5
 62
   256
  6
BYLAYER
 49
-0.5
 62
   256
  6
BYLAYER
  0
PLOTSETTINGS
  5
7F14
102
{ACAD_REACTORS
330
5D97
102
}
330
5D97
100
AcDbPlotSettings
  1
LASERJET5000 (MODEL)
  2
LaserJet 5000 (CAD Room)
  4
11x17
  6

 40
5.027083396911621
 41
5.027085304260253
 42
5.027099609375
 43
5.027069091796875
 44
279.3999938964844
 45
431.7999877929687
 46
-0.762
 47
12.7
 48
0.0
 49
0.0
140
0.0
141
0.0
142
1.0
143
2.0
 70
  1712
 72
     0
 73
     1
 74
     1
  7
HP LaserJet.ctb
 75
    17
147
0.5
 76
     0
 77
     2
 78
   300
148
-9.836719936971038
149
0.0347099098089075
  0
PLOTSETTINGS
  5
D238
102
{ACAD_REACTORS
330
5D97
102
}
330
5D97
100
AcDbPlotSettings
  1
OCE 22x34 (MODEL)
  2
oce34x22.pc3
  4
ANSI_expand_D_(22.00_x_34.00_Inches)
  6

 40
0.7937499880790711
 41
0.7937499880790711
 42
0.79376220703125
 43
0.79376220703125
 44
558.7999877929687
 45
863.5999755859375
 46
0.0
 47
17.78
 48
0.0
 49
0.0
140
0.0
141
0.0
142
1.0
143
1.0
 70
  1712
 72
     0
 73
     1
 74
     1
  7
OCE 22x34.ctb
 75
    16
147
1.0
 76
     0
 77
     2
 78
   300
148
0.0624224285698944
149
0.0260279300389826
  0
ACDBPLACEHOLDER
  5
5D95
102
{ACAD_REACTORS
330
5D94
102
}
330
5D94
  0
SCALE
  5
18BA9
102
{ACAD_REACTORS
330
18BA8
102
}
330
18BA8
100
AcDbScale
 70
     0
300
1:1
140
1.0
141
1.0
290
     1
  0
SCALE
  5
18BAA
102
{ACAD_REACTORS
330
18BA8
102
}
330
18BA8
100
AcDbScale
 70
     0
300
1:2
140
1.0
141
2.0
290
     0
  0
SCALE
  5
18BAB
102
{ACAD_REACTORS
330
18BA8
102
}
330
18BA8
100
AcDbScale
 70
     0
300
1:4
140
1.0
141
4.0
290
     0
  0
SCALE
  5
18BAC
102
{ACAD_REACTORS
330
18BA8
102
}
330
18BA8
100
AcDbScale
 70
     0
300
1:5
140
1.0
141
5.0
290
     0
  0
SCALE
  5
18BAD
102
{ACAD_REACTORS
330
18BA8
102
}
330
18BA8
100
AcDbScale
 70
     0
300
1:8
140
1.0
141
8.0
290
     0
  0
SCALE
  5
18BAE
102
{ACAD_REACTORS
330
18BA8
102
}
330
18BA8
100
AcDbScale
 70
     0
300
1:10
140
1.0
141
10.0
290
     0
  0
SCALE
  5
18BAF
102
{ACAD_REACTORS
330
18BA8
102
}
330
18BA8
100
AcDbScale
 70
     0
300
1:16
140
1.0
141
16.0
290
     0
  0
SCALE
  5
18BB0
102
{ACAD_REACTORS
330
18BA8
102
}
330
18BA8
100
AcDbScale
 70
     0
300
1:20
140
1.0
141
20.0
290
     0
  0
SCALE
  5
18BB1
102
{ACAD_REACTORS
330
18BA8
102
}
330
18BA8
100
AcDbScale
 70
     0
300
1:30
140
1.0
141
30.0
290
     0
  0
SCALE
  5
18BB2
102
{ACAD_REACTORS
330
18BA8
102
}
330
18BA8
100
AcDbScale
 70
     0
300
1:40
140
1.0
141
40.0
290
     0
  0
SCALE
  5
18BB3
102
{ACAD_REACTORS
330
18BA8
102
}
330
18BA8
100
AcDbScale
 70
     0
300
1:50
140
1.0
141
50.0
290
     0
  0
SCALE
  5
18BB4
102
{ACAD_REACTORS
330
18BA8
102
}
330
18BA8
100
AcDbScale
 70
     0
300
1:100
140
1.0
141
100.0
290
     0
  0
SCALE
  5
18BB5
102
{ACAD_REACTORS
330
18BA8
102
}
330
18BA8
100
AcDbScale
 70
     0
300
2:1
140
2.0
141
1.0
290
     0
  0
SCALE
  5
18BB6
102
{ACAD_REACTORS
330
18BA8
102
}
330
18BA8
100
AcDbScale
 70
     0
300
4:1
140
4.0
141
1.0
290
     0
  0
SCALE
  5
18BB7
102
{ACAD_REACTORS
330
18BA8
102
}
330
18BA8
100
AcDbScale
 70
     0
300
8:1
140
8.0
141
1.0
290
     0
  0
SCALE
  5
18BB8
102
{ACAD_REACTORS
330
18BA8
102
}
330
18BA8
100
AcDbScale
 70
     0
300
10:1
140
10.0
141
1.0
290
     0
  0
SCALE
  5
18BB9
102
{ACAD_REACTORS
330
18BA8
102
}
330
18BA8
100
AcDbScale
 70
     0
300
100:1
140
100.0
141
1.0
290
     0
  0
SCALE
  5
18BBA
102
{ACAD_REACTORS
330
18BA8
102
}
330
18BA8
100
AcDbScale
 70
     0
300
1/128" = 1'-0"
140
0.0078125
141
12.0
290
     0
  0
SCALE
  5
18BBB
102
{ACAD_REACTORS
330
18BA8
102
}
330
18BA8
100
AcDbScale
 70
     0
300
1/64" = 1'-0"
140
0.015625
141
12.0
290
     0
  0
SCALE
  5
18BBC
102
{ACAD_REACTORS
330
18BA8
102
}
330
18BA8
100
AcDbScale
 70
     0
300
1/32" = 1'-0"
140
0.03125
141
12.0
290
     0
  0
SCALE
  5
18BBD
102
{ACAD_REACTORS
330
18BA8
102
}
330
18BA8
100
AcDbScale
 70
     0
300
1/16" = 1'-0"
140
0.0625
141
12.0
290
     0
  0
SCALE
  5
18BBE
102
{ACAD_REACTORS
330
18BA8
102
}
330
18BA8
100
AcDbScale
 70
     0
300
3/32" = 1'-0"
140
0.09375
141
12.0
290
     0
  0
SCALE
  5
18BBF
102
{ACAD_REACTORS
330
18BA8
102
}
330
18BA8
100
AcDbScale
 70
     0
300
1/8" = 1'-0"
140
0.125
141
12.0
290
     0
  0
SCALE
  5
18BC0
102
{ACAD_REACTORS
330
18BA8
102
}
330
18BA8
100
AcDbScale
 70
     0
300
3/16" = 1'-0"
140
0.1875
141
12.0
290
     0
  0
SCALE
  5
18BC1
102
{ACAD_REACTORS
330
18BA8
102
}
330
18BA8
100
AcDbScale
 70
     0
300
1/4" = 1'-0"
140
0.25
141
12.0
290
     0
  0
SCALE
  5
18BC2
102
{ACAD_REACTORS
330
18BA8
102
}
330
18BA8
100
AcDbScale
 70
     0
300
3/8" = 1'-0"
140
0.375
141
12.0
290
     0
  0
SCALE
  5
18BC3
102
{ACAD_REACTORS
330
18BA8
102
}
330
18BA8
100
AcDbScale
 70
     0
300
1/2" = 1'-0"
140
0.5
141
12.0
290
     0
  0
SCALE
  5
18BC4
102
{ACAD_REACTORS
330
18BA8
102
}
330
18BA8
100
AcDbScale
 70
     0
300
3/4" = 1'-0"
140
0.75
141
12.0
290
     0
  0
SCALE
  5
18BC5
102
{ACAD_REACTORS
330
18BA8
102
}
330
18BA8
100
AcDbScale
 70
     0
300
1" = 1'-0"
140
1.0
141
12.0
290
     0
  0
SCALE
  5
18BC6
102
{ACAD_REACTORS
330
18BA8
102
}
330
18BA8
100
AcDbScale
 70
     0
300
1-1/2" = 1'-0"
140
1.5
141
12.0
290
     0
  0
SCALE
  5
18BC7
102
{ACAD_REACTORS
330
18BA8
102
}
330
18BA8
100
AcDbScale
 70
     0
300
3" = 1'-0"
140
3.0
141
12.0
290
     0
  0
SCALE
  5
18BC8
102
{ACAD_REACTORS
330
18BA8
102
}
330
18BA8
100
AcDbScale
 70
     0
300
6" = 1'-0"
140
6.0
141
12.0
290
     0
  0
SCALE
  5
18BC9
102
{ACAD_REACTORS
330
18BA8
102
}
330
18BA8
100
AcDbScale
 70
     0
300
1'-0" = 1'-0"
140
12.0
141
12.0
290
     0
  0
ACDBSECTIONVIEWSTYLE
  5
19548
102
{ACAD_REACTORS
330
19546
102
}
330
19546
100
AcDbModelDocViewStyle
 70
     0
  3
Imperial24
290
     0
100
AcDbSectionViewStyle
 70
     0
 71
     0
 90
       78
 71
     1
340
10
 62
   256
 40
0.24
340
0
340
0
 62
   256
 40
0.24
300
I, O, Q, S, X, Z
 40
0.48
 90
        3
 40
0.18
 90
        1
 71
     2
340
19547
 90
       25
 62
   256
340
16
 90
       50
 62
   256
 40
0.24
 40
0.0
 40
0.24
 71
     3
340
10
 62
   256
 40
0.24
 90
        1
 40
0.75
 90
        1
300
%<\AcVar ViewType \f "%tc1">% %<\AcVar ViewSectionStartId>%-%<\AcVar ViewSectionEndId>%\PSCALE %<\AcVar ViewScale \f "%sn">%
 71
     4
 62
   256
 62
   257
300
ANSI31
 40
1.0
 90
        0
290
     0
290
     0
 90
        6
 40
0.0
 40
1.570796326794896
 40
0.2617993877991494
 40
1.308996938995747
 40
-0.2617993877991494
 40
1.832595714594046
  0
TABLESTYLE
  5
1835C
102
{ACAD_XDICTIONARY
360
1950A
102
}
102
{ACAD_REACTORS
330
1835B
102
}
330
1835B
100
AcDbTableStyle
  3
Standard
 70
     0
 71
     0
 40
0.06
 41
0.06
280
     0
281
     0
  7
STANDARD
140
0.18
170
     2
 62
     0
 63
     7
283
     0
274
    -2
284
     1
 64
     0
275
    -2
285
     1
 65
     0
276
    -2
286
     1
 66
     0
277
    -2
287
     1
 67
     0
278
    -2
288
     1
 68
     0
279
    -2
289
     1
 69
     0
  7
STANDARD
140
0.25
170
     5
 62
     0
 63
     7
283
     0
274
    -2
284
     1
 64
     0
275
    -2
285
     1
 65
     0
276
    -2
286
     1
 66
     0
277
    -2
287
     1
 67
     0
278
    -2
288
     1
 68
     0
279
    -2
289
     1
 69
     0
  7
STANDARD
140
0.18
170
     5
 62
     0
 63
     7
283
     0
274
    -2
284
     1
 64
     0
275
    -2
285
     1
 65
     0
276
    -2
286
     1
 66
     0
277
    -2
287
     1
 67
     0
278
    -2
288
     1
 68
     0
279
    -2
289
     1
 69
     0
  0
VISUALSTYLE
  5
18350
102
{ACAD_XDICTIONARY
360
20C9A
102
}
102
{ACAD_REACTORS
330
1834A
102
}
330
1834A
100
AcDbVisualStyle
  2
2dWireframe
 70
     4
 71
     0
 72
     2
 73
     0
 90
        0
 40
-0.6
 41
-30.0
 62
     5
 63
     7
421
 16777215
 74
     1
 91
        4
 64
     7
 65
   257
 75
     1
175
     1
 42
1.0
 92
        0
 66
   257
 43
1.0
 76
     1
 77
     6
 78
     2
 67
     7
 79
     5
170
     0
171
     0
290
     0
174
     0
 93
        1
 44
0.0
173
     0
291
     0
 45
0.0
1001
ACAD
1000
AcDbSavedByObjectVersion
1070
     0
  0
VISUALSTYLE
  5
18B33
102
{ACAD_XDICTIONARY
360
20CAB
102
}
102
{ACAD_REACTORS
330
1834A
102
}
330
1834A
100
AcDbVisualStyle
  2
3D Hidden
 70
     6
 71
     1
 72
     2
 73
     2
 90
        0
 40
-0.6
 41
-30.0
 62
     5
 63
     7
421
 16777215
 74
     2
 91
        2
 64
     7
 65
   257
 75
     2
175
     1
 42
40.0
 92
        0
 66
   257
 43
1.0
 76
     1
 77
     6
 78
     2
 67
     7
 79
     3
170
     0
171
     0
290
     0
174
     0
 93
        1
 44
0.0
173
     0
291
     0
 45
0.0
1001
ACAD
1000
AcDbSavedByObjectVersion
1070
     0
  0
VISUALSTYLE
  5
18B32
102
{ACAD_XDICTIONARY
360
20CA9
102
}
102
{ACAD_REACTORS
330
1834A
102
}
330
1834A
100
AcDbVisualStyle
  2
3dWireframe
 70
     5
 71
     0
 72
     2
 73
     0
 90
        0
 40
-0.6
 41
-30.0
 62
     5
 63
     7
421
 16777215
 74
     1
 91
        4
 64
     7
 65
   257
 75
     1
175
     1
 42
1.0
 92
        0
 66
   257
 43
1.0
 76
     1
 77
     6
 78
     2
 67
     7
 79
     5
170
     0
171
     0
290
     0
174
     0
 93
        1
 44
0.0
173
     0
291
     0
 45
0.0
1001
ACAD
1000
AcDbSavedByObjectVersion
1070
     0
  0
VISUALSTYLE
  5
1834F
102
{ACAD_XDICTIONARY
360
20C98
102
}
102
{ACAD_REACTORS
330
1834A
102
}
330
1834A
100
AcDbVisualStyle
  2
Basic
 70
     7
 71
     1
 72
     0
 73
     1
 90
        0
 40
-0.6
 41
-30.0
 62
     5
 63
     7
421
 16777215
 74
     0
 91
        4
 64
     7
 65
   257
 75
     1
175
     1
 42
1.0
 92
        8
 66
     7
 43
1.0
 76
     1
 77
     6
 78
     2
 67
     7
 79
     5
170
     0
171
     0
290
     0
174
     0
 93
        1
 44
0.0
173
     0
291
     1
 45
0.0
1001
ACAD
1000
AcDbSavedByObjectVersion
1070
     0
  0
VISUALSTYLE
  5
18356
102
{ACAD_XDICTIONARY
360
20C9E
102
}
102
{ACAD_REACTORS
330
1834A
102
}
330
1834A
100
AcDbVisualStyle
  2
Brighten
 70
    12
 71
     2
 72
     2
 73
     0
 90
        0
 40
-0.6
 41
-30.0
 62
     5
 63
     7
421
 16777215
 74
     1
 91
        4
 64
     7
 65
   257
 75
     1
175
     1
 42
1.0
 92
        8
 66
     7
 43
1.0
 76
     1
 77
     6
 78
     2
 67
     7
 79
     5
170
     0
171
     0
290
     0
174
     0
 93
        1
 44
50.0
173
     0
291
     1
 45
0.0
1001
ACAD
1000
AcDbSavedByObjectVersion
1070
     0
  0
VISUALSTYLE
  5
1835A
102
{ACAD_XDICTIONARY
360
20CA6
102
}
102
{ACAD_REACTORS
330
1834A
102
}
330
1834A
100
AcDbVisualStyle
  2
ColorChange
 70
    16
 71
     2
 72
     2
 73
     3
 90
        0
 40
-0.6
 41
-30.0
 62
     5
 63
     8
421
  8421504
 74
     1
 91
        4
 64
     7
 65
   257
 75
     1
175
     1
 42
1.0
 92
        8
 66
     8
424
  8421504
 43
1.0
 76
     1
 77
     6
 78
     2
 67
     7
 79
     5
170
     0
171
     0
290
     0
174
     0
 93
        1
 44
0.0
173
     0
291
     1
 45
0.0
1001
ACAD
1000
AcDbSavedByObjectVersion
1070
     0
  0
VISUALSTYLE
  5
18B34
102
{ACAD_XDICTIONARY
360
20CAD
102
}
102
{ACAD_REACTORS
330
1834A
102
}
330
1834A
100
AcDbVisualStyle
  2
Conceptual
 70
     9
 71
     3
 72
     2
 73
     0
 90
        0
 40
-0.6
 41
-30.0
 62
     5
 63
     7
421
 16777215
 74
     2
 91
        2
 64
     7
 65
   257
 75
     1
175
     1
 42
40.0
 92
        8
 66
     7
 43
1.0
 76
     1
 77
     6
 78
     2
 67
     7
 79
     3
170
     0
171
     0
290
     0
174
     0
 93
        1
 44
0.0
173
     0
291
     0
 45
0.0
1001
ACAD
1000
AcDbSavedByObjectVersion
1070
     0
  0
VISUALSTYLE
  5
18355
102
{ACAD_XDICTIONARY
360
20C9C
102
}
102
{ACAD_REACTORS
330
1834A
102
}
330
1834A
100
AcDbVisualStyle
  2
Dim
 70
    11
 71
     2
 72
     2
 73
     0
 90
        0
 40
-0.6
 41
-30.0
 62
     5
 63
     7
421
 16777215
 74
     1
 91
        4
 64
     7
 65
   257
 75
     1
175
     1
 42
1.0
 92
        8
 66
     7
 43
1.0
 76
     1
 77
     6
 78
     2
 67
     7
 79
     5
170
     0
171
     0
290
     0
174
     0
 93
        1
 44
-50.0
173
     0
291
     1
 45
0.0
1001
ACAD
1000
AcDbSavedByObjectVersion
1070
     0
  0
VISUALSTYLE
  5
18BA7
102
{ACAD_XDICTIONARY
360
20CB5
102
}
102
{ACAD_REACTORS
330
1834A
102
}
330
1834A
100
AcDbVisualStyle
  2
EdgeColorOff
 70
    22
 71
     2
 72
     2
 73
     0
 90
        0
 40
-0.6
 41
-30.0
 62
     5
 63
     7
421
 16777215
 74
     1
 91
        4
 64
     7
 65
   257
 75
     1
175
     1
 42
1.0
 92
        8
 66
     7
 43
1.0
 76
     1
 77
     6
 78
     2
 67
     7
 79
     5
170
     0
171
     0
290
     0
174
     0
 93
        1
 44
0.0
173
     0
291
     1
 45
0.0
1001
ACAD
1000
AcDbSavedByObjectVersion
1070
     0
  0
VISUALSTYLE
  5
18359
102
{ACAD_XDICTIONARY
360
20CA4
102
}
102
{ACAD_REACTORS
330
1834A
102
}
330
1834A
100
AcDbVisualStyle
  2
Facepattern
 70
    15
 71
     2
 72
     2
 73
     0
 90
        0
 40
-0.6
 41
-30.0
 62
     5
 63
     7
421
 16777215
 74
     1
 91
        4
 64
     7
 65
   257
 75
     1
175
     1
 42
1.0
 92
        8
 66
     7
 43
1.0
 76
     1
 77
     6
 78
     2
 67
     7
 79
     5
170
     0
171
     0
290
     0
174
     0
 93
        1
 44
0.0
173
     0
291
     1
 45
0.0
1001
ACAD
1000
AcDbSavedByObjectVersion
1070
     0
  0
VISUALSTYLE
  5
1834B
102
{ACAD_XDICTIONARY
360
20C90
102
}
102
{ACAD_REACTORS
330
1834A
102
}
330
1834A
100
AcDbVisualStyle
  2
Flat
 70
     0
 71
     2
 72
     1
 73
     1
 90
        2
 40
-0.6
 41
30.0
 62
     5
 63
     7
421
 16777215
 74
     0
 91
        4
 64
     7
 65
   257
 75
     1
175
     1
 42
1.0
 92
        8
 66
     7
 43
1.0
 76
     1
 77
     6
 78
     2
 67
     7
 79
     5
170
     0
171
     0
290
     0
174
     0
 93
       13
 44
0.0
173
     0
291
     1
 45
0.0
1001
ACAD
1000
AcDbSavedByObjectVersion
1070
     0
  0
VISUALSTYLE
  5
1834C
102
{ACAD_XDICTIONARY
360
20C92
102
}
102
{ACAD_REACTORS
330
1834A
102
}
330
1834A
100
AcDbVisualStyle
  2
FlatWithEdges
 70
     1
 71
     2
 72
     1
 73
     1
 90
        2
 40
-0.6
 41
30.0
 62
     5
 63
     7
421
 16777215
 74
     1
 91
        4
 64
     7
 65
   257
 75
     1
175
     1
 42
1.0
 92
        0
 66
   257
 43
1.0
 76
     1
 77
     6
 78
     2
 67
     7
 79
     5
170
     0
171
     0
290
     0
174
     0
 93
       13
 44
0.0
173
     0
291
     1
 45
0.0
1001
ACAD
1000
AcDbSavedByObjectVersion
1070
     0
  0
VISUALSTYLE
  5
1834D
102
{ACAD_XDICTIONARY
360
20C94
102
}
102
{ACAD_REACTORS
330
1834A
102
}
330
1834A
100
AcDbVisualStyle
  2
Gouraud
 70
     2
 71
     2
 72
     2
 73
     1
 90
        2
 40
-0.6
 41
30.0
 62
     5
 63
     7
421
 16777215
 74
     0
 91
        4
 64
     7
 65
   257
 75
     1
175
     1
 42
1.0
 92
        0
 66
     7
 43
1.0
 76
     1
 77
     6
 78
     2
 67
     7
 79
     5
170
     0
171
     0
290
     0
174
     0
 93
       13
 44
0.0
173
     0
291
     1
 45
0.0
1001
ACAD
1000
AcDbSavedByObjectVersion
1070
     0
  0
VISUALSTYLE
  5
1834E
102
{ACAD_XDICTIONARY
360
20C96
102
}
102
{ACAD_REACTORS
330
1834A
102
}
330
1834A
100
AcDbVisualStyle
  2
GouraudWithEdges
 70
     3
 71
     2
 72
     2
 73
     1
 90
        2
 40
-0.6
 41
30.0
 62
     5
 63
     7
421
 16777215
 74
     1
 91
        4
 64
     7
 65
   257
 75
     1
175
     1
 42
1.0
 92
        0
 66
   257
 43
1.0
 76
     1
 77
     6
 78
     2
 67
     7
 79
     5
170
     0
171
     0
290
     0
174
     0
 93
       13
 44
0.0
173
     0
291
     1
 45
0.0
1001
ACAD
1000
AcDbSavedByObjectVersion
1070
     0
  0
VISUALSTYLE
  5
19540
102
{ACAD_XDICTIONARY
360
20CB9
102
}
102
{ACAD_REACTORS
330
1834A
102
}
330
1834A
100
AcDbVisualStyle
  2
Hidden
 70
     6
 71
     1
 72
     2
 73
     2
 90
        0
 40
-0.6
 41
-30.0
 62
     5
 63
     7
421
 16777215
 74
     2
 91
        2
 64
     7
 65
   257
 75
     2
175
     1
 42
40.0
 92
        0
 66
   257
 43
1.0
 76
     1
 77
     6
 78
     2
 67
     7
 79
     3
170
     0
171
     0
290
     0
174
     0
 93
        1
 44
0.0
173
     0
291
     0
 45
0.0
1001
ACAD
1000
AcDbSavedByObjectVersion
1070
     0
  0
VISUALSTYLE
  5
18BA5
102
{ACAD_XDICTIONARY
360
20CB1
102
}
102
{ACAD_REACTORS
330
1834A
102
}
330
1834A
100
AcDbVisualStyle
  2
JitterOff
 70
    20
 71
     2
 72
     2
 73
     0
 90
        0
 40
-0.6
 41
-30.0
 62
     5
 63
     7
421
 16777215
 74
     1
 91
        4
 64
     7
 65
   257
 75
     1
175
     1
 42
1.0
 92
       10
 66
     7
 43
1.0
 76
     1
 77
     6
 78
     2
 67
     7
 79
     5
170
     0
171
     0
290
     0
174
     0
 93
        1
 44
0.0
173
     0
291
     1
 45
0.0
1001
ACAD
1000
AcDbSavedByObjectVersion
1070
     0
  0
VISUALSTYLE
  5
18358
102
{ACAD_XDICTIONARY
360
20CA2
102
}
102
{ACAD_REACTORS
330
1834A
102
}
330
1834A
100
AcDbVisualStyle
  2
Linepattern
 70
    14
 71
     2
 72
     2
 73
     0
 90
        0
 40
-0.6
 41
-30.0
 62
     5
 63
     7
421
 16777215
 74
     1
 91
        4
 64
     7
 65
   257
 75
     7
175
     7
 42
1.0
 92
        8
 66
     7
 43
1.0
 76
     1
 77
     6
 78
     2
 67
     7
 79
     5
170
     0
171
     0
290
     0
174
     0
 93
        1
 44
0.0
173
     0
291
     1
 45
0.0
1001
ACAD
1000
AcDbSavedByObjectVersion
1070
     0
  0
VISUALSTYLE
  5
18BA6
102
{ACAD_XDICTIONARY
360
20CB3
102
}
102
{ACAD_REACTORS
330
1834A
102
}
330
1834A
100
AcDbVisualStyle
  2
OverhangOff
 70
    21
 71
     2
 72
     2
 73
     0
 90
        0
 40
-0.6
 41
-30.0
 62
     5
 63
     7
421
 16777215
 74
     1
 91
        4
 64
     7
 65
   257
 75
     1
175
     1
 42
1.0
 92
        9
 66
     7
 43
1.0
 76
     1
 77
     6
 78
     2
 67
     7
 79
     5
170
     0
171
     0
290
     0
174
     0
 93
        1
 44
0.0
173
     0
291
     1
 45
0.0
1001
ACAD
1000
AcDbSavedByObjectVersion
1070
     0
  0
VISUALSTYLE
  5
18B35
102
{ACAD_XDICTIONARY
360
20CAF
102
}
102
{ACAD_REACTORS
330
1834A
102
}
330
1834A
100
AcDbVisualStyle
  2
Realistic
 70
     8
 71
     2
 72
     2
 73
     0
 90
        0
 40
-0.6
 41
-30.0
 62
     5
 63
     7
421
 16777215
 74
     1
 91
        0
 64
     7
 65
   257
 75
     1
175
     1
 42
1.0
 92
        8
 66
     8
424
  7895160
 43
1.0
 76
     1
 77
     6
 78
     2
 67
     7
 79
     5
170
     0
171
     0
290
     0
174
     0
 93
       13
 44
0.0
173
     0
291
     0
 45
0.0
1001
ACAD
1000
AcDbSavedByObjectVersion
1070
     0
  0
VISUALSTYLE
  5
19545
102
{ACAD_XDICTIONARY
360
20CC3
102
}
102
{ACAD_REACTORS
330
1834A
102
}
330
1834A
100
AcDbVisualStyle
  2
Shaded
 70
    27
 71
     2
 72
     2
 73
     1
 90
        2
 40
-0.6
 41
30.0
 62
     5
 63
     7
421
 16777215
 74
     0
 91
        4
 64
     7
 65
   257
 75
     1
175
     1
 42
1.0
 92
        8
 66
   257
 43
1.0
 76
     1
 77
     6
 78
     2
 67
     8
425
  7895160
 79
     3
170
     0
171
     0
290
     0
174
     0
 93
        5
 44
0.0
173
     0
291
     0
 45
0.0
1001
ACAD
1000
AcDbSavedByObjectVersion
1070
     0
  0
VISUALSTYLE
  5
19544
102
{ACAD_XDICTIONARY
360
20CC1
102
}
102
{ACAD_REACTORS
330
1834A
102
}
330
1834A
100
AcDbVisualStyle
  2
Shaded with edges
 70
    26
 71
     2
 72
     2
 73
     1
 90
        2
 40
-0.6
 41
30.0
 62
     5
 63
     7
421
 16777215
 74
     1
 91
       10
 64
     7
 65
   257
 75
     2
175
     1
 42
1.0
 92
        8
 66
   257
 43
1.0
 76
     1
 77
     6
 78
     2
 67
     7
 79
     3
170
     0
171
     0
290
     0
174
     0
 93
        5
 44
0.0
173
     0
291
     0
 45
0.0
1001
ACAD
1000
AcDbSavedByObjectVersion
1070
     0
  0
VISUALSTYLE
  5
19541
102
{ACAD_XDICTIONARY
360
20CBB
102
}
102
{ACAD_REACTORS
330
1834A
102
}
330
1834A
100
AcDbVisualStyle
  2
Shades of Gray
 70
    23
 71
     2
 72
     2
 73
     3
 90
        0
 40
-0.6
 41
-30.0
 62
     5
 63
     7
421
 16777215
 74
     2
 91
        2
 64
     7
 65
     7
 75
     1
175
     1
 42
40.0
 92
        8
 66
     7
 43
1.0
 76
     1
 77
     6
 78
     2
 67
     7
 79
     3
170
     0
171
     0
290
     0
174
     0
 93
        1
 44
0.0
173
     0
291
     0
 45
0.0
1001
ACAD
1000
AcDbSavedByObjectVersion
1070
     0
  0
VISUALSTYLE
  5
19542
102
{ACAD_XDICTIONARY
360
20CBD
102
}
102
{ACAD_REACTORS
330
1834A
102
}
330
1834A
100
AcDbVisualStyle
  2
Sketchy
 70
    24
 71
     1
 72
     2
 73
     2
 90
        0
 40
-0.6
 41
-30.0
 62
     5
 63
     7
421
 16777215
 74
     2
 91
        2
 64
     7
 65
     7
 75
     1
175
     1
 42
40.0
 92
       11
 66
     7
 43
1.0
 76
     1
 77
     6
 78
     2
 67
     7
 79
     6
170
     0
171
     0
290
     0
174
     0
 93
        1
 44
0.0
173
     0
291
     0
 45
0.0
1001
ACAD
1000
AcDbSavedByObjectVersion
1070
     0
  0
VISUALSTYLE
  5
18357
102
{ACAD_XDICTIONARY
360
20CA0
102
}
102
{ACAD_REACTORS
330
1834A
102
}
330
1834A
100
AcDbVisualStyle
  2
Thicken
 70
    13
 71
     2
 72
     2
 73
     0
 90
        0
 40
-0.6
 41
-30.0
 62
     5
 63
     7
421
 16777215
 74
     1
 91
        4
 64
     7
 65
   257
 75
     1
175
     1
 42
1.0
 92
       12
 66
     7
 43
1.0
 76
     1
 77
     6
 78
     2
 67
     7
 79
     5
170
     0
171
     0
290
     0
174
     0
 93
        1
 44
0.0
173
     0
291
     1
 45
0.0
1001
ACAD
1000
AcDbSavedByObjectVersion
1070
     0
  0
VISUALSTYLE
  5
1953F
102
{ACAD_XDICTIONARY
360
20CB7
102
}
102
{ACAD_REACTORS
330
1834A
102
}
330
1834A
100
AcDbVisualStyle
  2
Wireframe
 70
     5
 71
     0
 72
     2
 73
     0
 90
        0
 40
-0.6
 41
-30.0
 62
     5
 63
     7
421
 16777215
 74
     1
 91
        4
 64
     7
 65
   257
 75
     1
175
     1
 42
1.0
 92
        0
 66
   257
 43
1.0
 76
     1
 77
     6
 78
     2
 67
     7
 79
     3
170
     0
171
     0
290
     0
174
     0
 93
        1
 44
0.0
173
     0
291
     0
 45
0.0
1001
ACAD
1000
AcDbSavedByObjectVersion
1070
     0
  0
VISUALSTYLE
  5
19543
102
{ACAD_XDICTIONARY
360
20CBF
102
}
102
{ACAD_REACTORS
330
1834A
102
}
330
1834A
100
AcDbVisualStyle
  2
X-Ray
 70
    25
 71
     2
 72
     2
 73
     1
 90
        1
 40
0.5
 41
-30.0
 62
     5
 63
     7
421
 16777215
 74
     1
 91
        0
 64
     7
 65
   257
 75
     1
175
     1
 42
1.0
 92
        8
 66
     7
 43
1.0
 76
     1
 77
     6
 78
     2
 67
     7
 79
     3
170
     0
171
     0
290
     0
174
     0
 93
       13
 44
0.0
173
     0
291
     0
 45
0.0
1001
ACAD
1000
AcDbSavedByObjectVersion
1070
     0
  0
DICTIONARYVAR
  5
1953D
102
{ACAD_REACTORS
330
F6BD
102
}
330
F6BD
100
DictionaryVariables
280
     0
  1
1:1
  0
DICTIONARYVAR
  5
1953C
102
{ACAD_REACTORS
330
F6BD
102
}
330
F6BD
100
DictionaryVariables
280
     0
  1
STANDARD
  0
DICTIONARYVAR
  5
185A4
102
{ACAD_REACTORS
330
F6BD
102
}
330
F6BD
100
DictionaryVariables
280
     0
  1
STANDARD
  0
DICTIONARYVAR
  5
1959E
102
{ACAD_REACTORS
330
F6BD
102
}
330
F6BD
100
DictionaryVariables
280
     0
  1
Imperial24
  0
DICTIONARYVAR
  5
1959F
102
{ACAD_REACTORS
330
F6BD
102
}
330
F6BD
100
DictionaryVariables
280
     0
  1
Imperial24
  0
DICTIONARYVAR
  5
F6BE
102
{ACAD_REACTORS
330
F6BD
102
}
330
F6BD
100
DictionaryVariables
280
     0
  1
96
  0
XRECORD
  5
5508
102
{ACAD_REACTORS
330
54CC
102
}
330
0
100
AcDbXrecord
280
     1
330
0
330
0
330
0
330
0
330
0
330
0
330
0
330
0
330
0
330
0
330
0
330
0
330
0
330
0
330
0
330
0
330
0
330
0
330
0
330
0
330
0
330
0
330
0
330
0
330
0
330
0
330
0
330
0
330
0
330
0
330
0
330
0
330
0
330
0
330
0
330
0
330
0
330
0
330
0
330
0
330
0
330
0
330
0
330
0
330
0
330
0
330
0
330
0
330
0
330
0
330
0
330
0
330
0
330
0
330
0
330
0
330
0
330
0
330
0
330
0
330
0
330
0
330
0
330
0
330
0
330
0
330
0
330
0
330
0
330
0
330
0
330
0
330
0
  0
XRECORD
  5
5509
102
{ACAD_REACTORS
330
54CC
102
}
330
0
100
AcDbXrecord
280
     1
330
0
330
0
  0
XRECORD
  5
550A
102
{ACAD_REACTORS
330
54CC
102
}
330
0
100
AcDbXrecord
280
     1
330
0
  0
XRECORD
  5
550B
102
{ACAD_REACTORS
330
54CC
102
}
330
0
100
AcDbXrecord
280
     1
330
0
330
0
  0
DICTIONARY
  5
19508
330
5D98
100
AcDbDictionary
280
     1
281
     1
  3
ADSK_XREC_LAYOUTTHUMBNAIL
360
19509
  0
DICTIONARY
  5
20C8C
330
18348
100
AcDbDictionary
280
     1
281
     1
  3
ACAD_XREC_ROUNDTRIP
360
20C8D
  0
DICTIONARY
  5
20C8A
330
18347
100
AcDbDictionary
280
     1
281
     1
  3
ACAD_XREC_ROUNDTRIP
360
20C8B
  0
DICTIONARY
  5
20C8E
330
18349
100
AcDbDictionary
280
     1
281
     1
  3
ACAD_XREC_ROUNDTRIP
360
20C8F
  0
DICTIONARY
  5
1950A
330
1835C
100
AcDbDictionary
280
     1
281
     1
  3
ACAD_ROUNDTRIP_2008_TABLESTYLE_CELLSTYLEMAP
360
20C88
  3
ACAD_XREC_ROUNDTRIP
360
20CA8
  0
DICTIONARY
  5
20C9A
330
18350
100
AcDbDictionary
280
     1
281
     1
  3
ACAD_XREC_ROUNDTRIP
360
20C9B
  0
DICTIONARY
  5
20CAB
330
18B33
100
AcDbDictionary
280
     1
281
     1
  3
ACAD_XREC_ROUNDTRIP
360
20CAC
  0
DICTIONARY
  5
20CA9
330
18B32
100
AcDbDictionary
280
     1
281
     1
  3
ACAD_XREC_ROUNDTRIP
360
20CAA
  0
DICTIONARY
  5
20C98
330
1834F
100
AcDbDictionary
280
     1
281
     1
  3
ACAD_XREC_ROUNDTRIP
360
20C99
  0
DICTIONARY
  5
20C9E
330
18356
100
AcDbDictionary
280
     1
281
     1
  3
ACAD_XREC_ROUNDTRIP
360
20C9F
  0
DICTIONARY
  5
20CA6
330
1835A
100
AcDbDictionary
280
     1
281
     1
  3
ACAD_XREC_ROUNDTRIP
360
20CA7
  0
DICTIONARY
  5
20CAD
330
18B34
100
AcDbDictionary
280
     1
281
     1
  3
ACAD_XREC_ROUNDTRIP
360
20CAE
  0
DICTIONARY
  5
20C9C
330
18355
100
AcDbDictionary
280
     1
281
     1
  3
ACAD_XREC_ROUNDTRIP
360
20C9D
  0
DICTIONARY
  5
20CB5
330
18BA7
100
AcDbDictionary
280
     1
281
     1
  3
ACAD_XREC_ROUNDTRIP
360
20CB6
  0
DICTIONARY
  5
20CA4
330
18359
100
AcDbDictionary
280
     1
281
     1
  3
ACAD_XREC_ROUNDTRIP
360
20CA5
  0
DICTIONARY
  5
20C90
330
1834B
100
AcDbDictionary
280
     1
281
     1
  3
ACAD_XREC_ROUNDTRIP
360
20C91
  0
DICTIONARY
  5
20C92
330
1834C
100
AcDbDictionary
280
     1
281
     1
  3
ACAD_XREC_ROUNDTRIP
360
20C93
  0
DICTIONARY
  5
20C94
330
1834D
100
AcDbDictionary
280
     1
281
     1
  3
ACAD_XREC_ROUNDTRIP
360
20C95
  0
DICTIONARY
  5
20C96
330
1834E
100
AcDbDictionary
280
     1
281
     1
  3
ACAD_XREC_ROUNDTRIP
360
20C97
  0
DICTIONARY
  5
20CB9
330
19540
100
AcDbDictionary
280
     1
281
     1
  3
ACAD_XREC_ROUNDTRIP
360
20CBA
  0
DICTIONARY
  5
20CB1
330
18BA5
100
AcDbDictionary
280
     1
281
     1
  3
ACAD_XREC_ROUNDTRIP
360
20CB2
  0
DICTIONARY
  5
20CA2
330
18358
100
AcDbDictionary
280
     1
281
     1
  3
ACAD_XREC_ROUNDTRIP
360
20CA3
  0
DICTIONARY
  5
20CB3
330
18BA6
100
AcDbDictionary
280
     1
281
     1
  3
ACAD_XREC_ROUNDTRIP
360
20CB4
  0
DICTIONARY
  5
20CAF
330
18B35
100
AcDbDictionary
280
     1
281
     1
  3
ACAD_XREC_ROUNDTRIP
360
20CB0
  0
DICTIONARY
  5
20CC3
330
19545
100
AcDbDictionary
280
     1
281
     1
  3
ACAD_XREC_ROUNDTRIP
360
20CC4
  0
DICTIONARY
  5
20CC1
330
19544
100
AcDbDictionary
280
     1
281
     1
  3
ACAD_XREC_ROUNDTRIP
360
20CC2
  0
DICTIONARY
  5
20CBB
330
19541
100
AcDbDictionary
280
     1
281
     1
  3
ACAD_XREC_ROUNDTRIP
360
20CBC
  0
DICTIONARY
  5
20CBD
330
19542
100
AcDbDictionary
280
     1
281
     1
  3
ACAD_XREC_ROUNDTRIP
360
20CBE
  0
DICTIONARY
  5
20CA0
330
18357
100
AcDbDictionary
280
     1
281
     1
  3
ACAD_XREC_ROUNDTRIP
360
20CA1
  0
DICTIONARY
  5
20CB7
330
1953F
100
AcDbDictionary
280
     1
281
     1
  3
ACAD_XREC_ROUNDTRIP
360
20CB8
  0
DICTIONARY
  5
20CBF
330
19543
100
AcDbDictionary
280
     1
281
     1
  3
ACAD_XREC_ROUNDTRIP
360
20CC0
  0
XRECORD
  5
19509
102
{ACAD_REACTORS
330
19508
102
}
330
19508
100
AcDbXrecord
280
     1
310
28000000000100007800000001000800000000000078000001000000010000000001000000000000000000000000003EC8C8C8FF000000FF000000FF000000FF000000FF000000FF000000FF000000FF000000FF330000FF660000FF990000FFCC0000FFFF0000FF003300FF333300FF663300FF993300FFCC3300FFFF3300
310
FF006600FF336600FF666600FF996600FFCC6600FFFF6600FF009900FF339900FF669900FF999900FFCC9900FFFF9900FF00CC00FF33CC00FF66CC00FF99CC00FFCCCC00FFFFCC00FF00FF00FF33FF00FF66FF00FF99FF00FFCCFF00FFFFFF00FF000033FF330033FF660033FF990033FFCC0033FFFF0033FF003333FF3333
310
33FF663333FF993333FFCC3333FFFF3333FF006633FF336633FF666633FF996633FFCC6633FFFF6633FF009933FF339933FF669933FF999933FFCC9933FFFF9933FF00CC33FF33CC33FF66CC33FF99CC33FFCCCC33FFFFCC33FF00FF33FF33FF33FF66FF33FF99FF33FFCCFF33FFFFFF33FF000066FF330066FF660066FF99
310
0066FFCC0066FFFF0066FF003366FF333366FF663366FF993366FFCC3366FFFF3366FF006666FF336666FF666666FF996666FFCC6666FFFF6666FF009966FF339966FF669966FF999966FFCC9966FFFF9966FF00CC66FF33CC66FF66CC66FF99CC66FFCCCC66FFFFCC66FF00FF66FF33FF66FF66FF66FF99FF66FFCCFF66FF
310
FFFF66FF000099FF330099FF660099FF990099FFCC0099FFFF0099FF003399FF333399FF663399FF993399FFCC3399FFFF3399FF006699FF336699FF666699FF996699FFCC6699FFFF6699FF009999FF339999FF669999FF999999FFCC9999FFFF9999FF00CC99FF33CC99FF66CC99FF99CC99FFCCCC99FFFFCC99FF00FF99
310
FF33FF99FF66FF99FF99FF99FFCCFF99FFFFFF99FF0000CCFF3300CCFF6600CCFF9900CCFFCC00CCFFFF00CCFF0033CCFF3333CCFF6633CCFF9933CCFFCC33CCFFFF33CCFF0066CCFF3366CCFF6666CCFF9966CCFFCC66CCFFFF66CCFF0099CCFF3399CCFF6699CCFF9999CCFFCC99CCFFFF99CCFF00CCCCFF33CCCCFF66CC
310
CCFF99CCCCFFCCCCCCFFFFCCCCFF00FFCCFF33FFCCFF66FFCCFF99FFCCFFCCFFCCFFFFFFCCFF0000FFFF3300FFFF6600FFFF9900FFFFCC00FFFFFF00FFFF0033FFFF3333FFFF6633FFFF9933FFFFCC33FFFFFF33FFFF0066FFFF3366FFFF6666FFFF9966FFFFCC66FFFFFF66FFFF0099FFFF3399FFFF6699FFFF9999FFFFCC
310
99FFFFFF99FFFF00CCFFFF33CCFFFF66CCFFFF99CCFFFFCCCCFFFFFFCCFFFF00FFFFFF33FFFFFF66FFFFFF99FFFFFFCCFFFFFFFFFFFFFF000000FF0D0D0DFF1A1A1AFF282828FF353535FF434343FF505050FF5D5D5DFF6B6B6BFF787878FF868686FF939393FFA1A1A1FFAEAEAEFFBBBBBBFFC9C9C9FFD6D6D6FFE4E4E4FF
310
F1F1F1FFFFFFFFFF000000FF000000FF000000FF000000FF000000FF000000FF000000FF000000FF000000FF000000FF00000000000000000000000000000000000000000000000000000000000000000000000000000000000000000000000000000000000000000000000000000000000000000000000000000000000000
310
00000000000000000000000000000000000000000000000000000000000000000000000000000000000000000000000000000000000000000000000000000000000000000000000000000000000000000000000000000000000000000000000000000000000000000000000000000000000000000000000000000000000000
310
000000000000000000000000000000000000000000000000000000000000000000000000000000000000000000000000000000000000000000000000000000000000000000000000000000000000000000000000BEBEBEBEBEBEBEBEBEBEBEBEBEBEBEBEBEBEBEBEBEBEBEBEBEBEBEBEBEBEBEBEBEBEBEBEBEBEBEBEBEBEBE
310
BEBEBEBEBEBEBEBEBEBEBEBEBEBEBEBEBEBEBEBEBEBEBEBEBEBEBEBEBEBEBEBEBEBEBEBEBEBEBEBEBEBEBEBEBEBEBEBEBEBEBEBEBEBEBEBEBEBEBEBEBEBEBEBEBEBEBEBEBEBEBEBEBEBEBEBEBEBEBEBEBEBEBEBEBEBEBEBEBEBEBEBEBEBEBEBEBEBEBEBEBEBEBEBEBEBEBEBEBEBEBEBEBEBEBEBEBEBEBEBEBEBEBEBEBEBEBE
310
BEBEBEBEBEBEBEBEBEBEBEBEBEBEBEBEBEBE0000000000000000000000000000000000000000000000000000000000000000000000000000000000000000000000000000000000000000000000000000000000000000BE00000000000000000000000000000000000000000000000000000000000000000000000000000000
310
00000000000000000000000000000000000000000000000000000000000000000000000000000000000000000000000000000000000000000000000000000000000000000000000000000000000000000000000000000000000000000000000000000000000000000000000000000000000000000000000000000000000000
310
00000000000000000000000000000000000000BE0000000000000000000000000000000000000000000000000000000000000000000000000000000000000000000000000000000000000000000000000000000000000000BE0000000000000000000000000000000000000000000000000000000000000000000000000000
310
00000000000000000000000000000000000000000000000000000000000000000000000000000000000000000000000000000000000000000000000000000000000000000000000000000000000000000000000000000000000000000000000000000000000000000000000000000000000000000000000000000000000000
310
000000000000000000000000000000000000000000BE0000000000000000000000000000000000000000000000000000000000000000000000000000000000000000000000000000000000000000000000000000000000000000BE000000000000000000000000000000000000000000000000000000000000000000000000
310
00000000000000000000000000000000000000000000000000000000000000000000000000000000000000000000000000000000000000000000000000000000000000000000000000000000000000000000000000000000000000000000000000000000000000000000000000000000000000000000000000000000000000
310
0000000000000000000000000000000000000000000000BE0000000000000000000000000000000000000000000000000000000000000000000000000000000000000000000000000000000000000000000000000000000000000000BE00000000000000000000000000000000000000000000000000000000000000000000
310
00000000000000000000000000000000000000000000000000000000000000000000000000000000000000000000000000000000000000000000000000000000000000000000000000000000000000000000000000000000000000000000000000000000000000000000000000000000000000000000000000000000000000
310
00000000000000000000000000000000000000000000000000BE0000000000000000000000000000000000000000000000000000000000000000000000000000000000000000000000000000000000000000000000000000000000000000BE0000000000000000000000000000000000000000000000000000000000000000
310
00000000000000000000000000000000000000000000000000000000000000000000000000000000000000000000000000000000000000000000000000000000000000000000000000000000000000000000000000000000000000000000000000000000000000000000000000000000000000000000000000000000000000
310
000000000000000000000000000000000000000000000000000000BE0000000000000000000000000000000000000000000000000000000000000000000000000000000000000000000000000000000000000000000000000000000000000000BE000000000000000000000000000000000000000000000000000000000000
310
00000000000000000000000000000000000000000000000000000000000000000000000000000000000000000000000000000000000000000000000000000000000000000000000000000000000000000000000000000000000000000000000000000000000000000000000000000000000000000000000000000000000000
310
0000000000000000000000000000000000000000000000000000000000BE0000000000000000000000000000000000000000000000000000000000000000000000000000000000000000000000000000000000000000000000000000000000000000BE00000000000000000000000000000000000000000000000000000000
310
00000000000000000000000000000000000000000000000000000000000000000000000000000000000000000000000000000000000000000000000000000000000000000000000000000000000000000000000000000000000000000000000000000000000000000000000000000000000000000000000000000000000000
310
00000000000000000000000000000000000000000000000000000000000000BE0000000000000000000000000000000000000000000000000000000000000000000000000000000000000000000000000000000000000000000000000000000000000000BE0000000000000000000000000000000000000000000000000000
310
00000000000000000000000000000000000000000000000000000000000000000000000000000000000000000000000000000000000000000000000000000000000000000000000000000000000000000000000000000000000000000000000000000000000000000000000000000000000000000000000000000000000000
310
000000000000000000000000000000000000000000000000000000000000000000BE0000000000000000000000000000000000000000000000000000000000000000000000000000000000000000000000000000000000000000000000000000000000000000BE000000000000000000000000000000000000000000000000
310
00000000000000000000000000000000000000000000000000000000000000000000000000000000000000000000000000000000000000000000000000000000000000000000000000000000000000000000000000000000000000000000000000000000000000000000000000000000000000000000000000000000000000
310
0000000000000000000000000000000000000000000000000000000000000000000000BE0000000000000000000000000000000000000000000000000000000000000000000000000000000000000000000000000000000000000000000000000000000000000000BE00000000000000000000000000000000000000000000
310
00000000000000000000000000000000000000000000000000000000000000000000000000000000000000000000000000000000000000000000000000000000000000000000000000000000000000000000000000000000000000000000000000000000000000000000000000000000000000000000000000000000000000
310
00000000000000000000000000000000000000000000000000000000000000000000000000BE0000000000000000000000000000000000000000000000000000000000000000000000000000000000000000000000000000000000000000000000000000000000000000BE0000000000000000000000000000000000000000
310
00000000000000000000000000000000000000000000000000000000000000000000000000000000000000000000000000000000000000000000000000000000000000000000000000000000000000000000000000000000000000000000000000000000000000000000000000000000000000000000000000000000000000
310
000000000000000000000000000000000000000000000000000000000000000000000000000000BE0000000000000000000000000000000000000000000000000000000000000000000000000000000000000000000000000000000000000000000000000000000000000000BE000000000000000000000000000000000000
310
00000000000000000000000000000000000000000000000000000000000000000000000000000000000000000000000000000000000000000000000000000000000000000000000000000000000000000000000000000000000000000000000000000000000000000000000000000000000000000000000000000000000000
310
0000000000000000000000000000000000000000000000000000000000000000000000000000000000BE0000000000000000000000000000000000000000000000000000000000000000000000000000000000000000000000000000000000000000000000000000000000000000BE00000000000000000000000000000000
310
00000000000000000000000000000000000000000000000000000000000000000000000000000000000000000000000000000000000000000000000000000000000000000000000000000000000000000000000000000000000000000000000000000000000000000000000000000000000000000000000000000000000000
310
00000000000000000000000000000000000000000000000000000000000000000000000000000000000000BE0000000000000000000000000000000000000000000000000000000000000000000000000000000000000000000000000000000000000000000000000000000000000000BE0000000000000000000000000000
310
00000000000000000000000000000000000000000000000000000000000000000000000000000000000000000000000000000000000000000000000000000000000000000000000000000000000000000000000000000000000000002828282800282828282828282828282828000000000000000000000000000000000000
310
000000000000000000000000000000000000000000000000000000000000000000000000000000000000000000BE0000000000000000000000000000000000000000000000000000000000000000000000000000000000000000000000000000000000000000000000000000000000000000BE000000000000000000000000
310
00000000000000000000000000000000000000000000000000000000000000000000000000000000000000000000000000000000000000000000000000000000000000000000000000000000000000000000000000000000000000000000282828280028282828282828282828282800000000000000000000000000000000
310
0000000000000000000000000000000000000000000000000000000000000000000000000000000000000000000000BE0000000000000000000000000000000000000000000000000000000000000000000000000000000000000000000000000000000000000000000000000000000000000000BE00000000000000000000
310
00000000000000000000000000000000000000000000000000000000000000000000000000000000000000000000000000000000000000000000000000000000000000000000000000000000000000000000000000000000000000000000000000282828282828282800282828282800000000000000000000000000000000
310
00000000000000000000000000000000000000000000000000000000000000000000000000000000000000000000000000BE0000000000000000000000000000000000000000000000000000000000000000000000000000000000000000000000000000000000000000000000000000000000000000BE0000000000000000
310
00000000000000000000000000000000000000000000000000000000000000000000000000000000000000000000000000000000000000000000000000000000000000000000000000000000000000000000000000000000000000000000000000000028282828282828280028282828280000000000000000000000000000
310
000000000000000000000000000000000000000000000000000000000000000000000000000000000000000000000000000000BE0000000000000000000000000000000000000000000000000000000000000000000000000000000000000000000000000000000000000000000000000000000000000000BE000000000000
310
0000000000000000000000000000000000000000000000000000000000000000000000000000002D00000000000000002D000000000000002D000000000000000000000000000000000000000000000000000000000000000000000000000000000000002D000000000000000000000000002D000000000000000000000000
310
0000000000000000000000000000000000000000000000000000000000000000000000000000000000000000000000000000000000BE0000000000000000000000000000000000000000000000000000000000000000000000000000000000000000000000000000000000000000000000000000000000000000BE00000000
310
00000000000000000000000000000000000000000000000000000000000000000000000000000000002D2D2D2D2D2D2D2D2D2D2D2D2D2D2D2D2D2D002828282828282828282800000000000000000000000000000000000000000000000000000000000000002D2D2D2D2D2D2D2D2D2D2D2D2D2D2D2D2D2D2D2D0000000000
310
00000000000000000000000000000000000000000000000000000000000000000000000000000000000000000000000000000000000000BE0000000000000000000000000000000000000000000000000000000000000000000000000000000000000000000000000000000000000000000000000000000000000000BE0000
310
000000000000000000000000000000000000000000000000000000000000000000000000000000000000002D002D2D00002D2D002D002D2D00002D2D2D002828282828282828282800000000000000000000000000000000000000000000000000000000000000002D2D2D00000000000000002D2D002D002D2DF5F500F5F5
310
000000000000000000000000000000000000000000000000000000000000000000000000000000000000000000000000000000000000000000BE0000000000000000000000000000000000000000000000000000000000000000000000000000000000000000000000000000000000000000000000000000000000000000BE
310
0000000000000000000000000000000000000000000000000000000000000000000000000000000000000000002D000000F5F50000002D000000F5F500002D000028282828282828280000000000000000000000000000000000000000000000000000000000000000002D000000000000000000000000002D000000F5F500
310
F5F5000000000000000000000000000000000000000000000000000000000000000000000000000000000000000000000000000000000000000000BE00000000000000000000000000000000000000000000000000000000000000000000000000000000000000000000000000000000000000000000000000000000000000
310
00BE0000000000000000000000000000000000000000000000000000000000000000000000000000000000000000002D000000F5F5F500002D000000F5F5F5002D000028282828282828280000000000000000000000000000000000000000000000000000000000000000002D000000000000000000000000002D0000F5F5
310
00F5F5F5F5F500000000000000000000000000000000000000000000000000000000000000000000000000000000000000000000000000000000000000BE0000000000000000000000000000000000000000000000000000000000000000000000000000000000000000000000000000000000000000000000000000000000
310
000000BE000000000000000000000000000000000000000000000000000000000000000000000000000000000000000000000000000000F500000000000000F5F50000000000000000000000000000000000000000000000000000000000000000000000000000000000000000000000000000000000000000000000000000
310
000000F50000F5F500000000000000000000000000000000000000000000000000000000000000000000000000000000000000000000000000000000000000BE000000000000000000000000000000000000000000000000000000000000000000000000000000000000000000000000000000000000000000000000000000
310
0000000000BE00000000000000000000000000000000000000000000000000000000000000000000000000000000000000000000000000000000000000000000000000000000000000000000000000000000000000000000000000000000000000000000000000000000000000000000000000000000000000000000000000
310
0000000000000000000000000000000000000000000000000000000000000000000000000000000000000000000000000000000000000000000000000000000000BE00000000000000000000000000000000000000000000000000000000000000000000000000000000000000000000000000000000000000000000000000
310
00000000000000BE0000000000000000000000000000000000000000000000000000000000000000000000000000000000000000000000000000000000000000000000000000000000000000000000000000000000000000000000000000000000000000000000000000000000000000000000000000000000000000000000
310
00000000000000000000000000000000000000000000000000000000000000000000000000000000000000000000000000000000000000000000000000000000000000BE0000000000000000000000000000000000000000000000000000000000000000000000000000000000000000000000000000000000000000000000
310
000000000000000000BE000000000000000000000000000000000000000000000000000000000000000000000000000000000000000000000000000000000000000000000000000000000000000000000000000000000000000000000000000000000000000000000000000000000000000000000000000000000000000000
310
000000000000000000000000000000000000000000000000000000000000000000000000000000000000000000000000000000000000000000000000000000000000000000BE000000000000000000000000000000000000000000000000000000000000000000000000000000000000000000000000000000000000000000
310
0000000000000000000000BE00000000000000000000000000000000000000000000000000000000000000000000000000000000000000000000000000000000000000000000000000000000000000000000000000000000000000000000000000000000000000000000000000F5F5F52D0000000000000000000000000000
310
0000000000000000000000000000000000000000000000000000000000000000000000000000000000000000000000000000000000000000000000000000000000000000000000BE00000000000000000000000000000000000000000000000000000000000000000000000000000000000000000000000000000000000000
310
00000000000000000000000000BE000000000000000000000000000000000000000000000000000000000000000000000000000000000000000000000000000000000000000000000000000000000000000000000000000000000000000000000000000000000000000000000000F5F500002D000000000000000000000000
310
00000000000000000000000000000000000000000000000000000000000000000000000000000000000000000000000000000000000000000000000000000000000000000000000000BE0000000000000000000000000000000000000000000000000000000000000000000000000000000000000000000000000000000000
310
000000000000000000000000000000BE000000000000000000000000000000000000000000000000000000000000000000000000000000000000000000000000000000000000000000000000000000000000000000000000000000000000000000000000000000000000000000000000F5F500002D00000000000000000000
310
000000000000000000000000000000000000000000000000000000000000000000000000000000000000000000000000000000000000000000000000000000000000000000000000000000BE000000000000000000000000000000000000000000000000000000000000000000000000000000000000000000000000000000
310
0000000000000000000000000000000000BE0000000000000000000000000000000000000000000000000000000000000000000000000000000000000000002828282828282828282828282828282828282828282828282828280000000000000000000000000000000000000000002D2D2D2D2D2D2D2D2D2D2D2D00BE00C3
310
C3C3C3C3C3C3C3C3C3C3C3BE0000000000000000000000000000000000000000000000000000000000000000000000000000000000000000000000000000000000000000000000000000000000BE00000000000000000000000000000000000000000000000000000000000000000000000000000000000000000000000000
310
00000000000000000000000000000000000000BE000000000000000000000000000000000000000000000000000000000000000000000000000000000000000000282828282828282828282828282828282828282828282828282828000000000000000000000000000000000000000000002D000000002D2D2D2D2D2D0028
310
BEC3C3C3C3C3C3C3C3C3C3C3C3BEAC00000000000000000000000000000000000000000000000000000000000000000000000000000000000000000000000000000000000000000000000000000000BE0000000000000000000000000000000000000000000000000000000000000000000000000000000000000000000000
310
000000000000000000000000000000000000000000BE000000000000000000000000000000000000000000000000000000000000000000000000000000000000000000282800002800280028282800280028002828280000000000002828000000000000000000000000000000000000000000002D2D000000002D00000000
310
002800000000000000000000000000BE00AC000000000000000000000000000000000000000000000000000000000000000000000000000000000000000000000000000000000000000000000000000000BE000000000000000000000000000000000000000000000000000000000000000000000000000000000000000000
310
0000000000000000000000000000000000000000000000BE000000000000000000000000000000000000000000000000000000000000000000000000000000000000000000282800DCDCDCDCDC282828DCDCDCDCDC2828280000000000002828000000000000000000000000000000000000000000002D2D000000002D0000
310
0000002800000000000000000000000000BEAC00000000000000000000000000000000000000000000000000000000000000000000000000000000000000000000000000000000000000000000000000000000BE00000000000000000000000000000000000000000000000000000000000000000000000000000000000000
310
00000000000000000000000000000000000000000000000000BE000000000000000000000000000000000000000000000000000000000000000000000000000000000000000000282800DC2800DC0028282800DC0028DC2828280000000000002828000000000000000000000000000000000000000000002D00000000002D
310
0000000000280000DC28002828282800DC0000BE00AC000000000000000000000000000000000000000000000000000000000000000000000000000000000000000000000000000000000000000000000000000000BE0000000000000000000000000000000000000000000000000000000000000000000000000000000000
310
000000000000000000000000000000000000000000000000000000BE000000000000000000000000000000000000000000000000000000000000000000000000000000000000000000282800DC2800DC0028282800DC0028DC2828280000000000002828000000000000000000000000000000000000000000002D00000000
310
002D00000000002800DCDCDCDCDCDCDCDCDCDC0000BEAC00000000000000000000000000000000000000000000000000000000000000000000000000000000000000000000000000000000000000000000000000000000BE000000000000000000000000000000000000000000000000000000000000000000000000000000
310
0000000000000000000000000000000000000000000000000000000000BE000000000000000000282828282828282828280028282828282828282828282828280028282828282828280000282800DC2800DC0028282800DC0028DC2828280000000000002828000000000000000000000000000000000000000000002D0000
310
0000002D0000000000280028DC28000000002800DC0000BEACAC000000000000000000000000000000000000000000000000000000000000000000000000000000000000000000000000000000000000000000000000000000BE00000000000000000000000000000000000000000000000000000000000000000000000000
310
00000000000000000000000000000000000000000000000000000000000000BE000000000000000000282828282828282828280028282828282828282828282828280028282828282828280000282800DC2800DC0028282800DC0028DC2828280000000000002828000000000000000000000000000000000000000000002D
310
00000000002D0000000000280028DC28000000002800DC0000BEAC00000000000000000000000000000000000000000000000000000000000000000000000000000000000000000000000000000000000000000000000000000000BE0000000000000000000000000000000000000000000000000000000000000000000000
310
000000000000000000000000000000000000000000000000000000000000000000BE000000000000000000000000000000000000000000000000000000000000000000000000000000000000000000282800DC2800DC0028282800DC0028DC2828280000000000002828000000000000000000000000000000000000000000
310
002D00000000002D0000000000280028DC00000000000000DC0000BEACAC000000000000000000000000000000000000000000000000000000000000000000000000000000000000000000000000000000000000000000000000000000BE000000000000000000000000000000000000000000000000000000000000000000
310
0000000000000000000000000000000000000000000000000000000000000000000000BE000000000000000000000000000000000000000000000000000000000000000000000000000000000000000000282800DC2800DC0028282800DC0028DC282828000000000000282800000000000000000000000000000000000000
310
0000002D00000000002D0000000000280000DC00000000000000DC0000BE00AC000000000000000000000000000000000000000000000000000000000000000000000000000000000000000000000000000000000000000000000000000000BE00000000000000000000000000000000000000000000000000000000000000
310
00000000000000000000000000000000000000000000000000000000000000000000000000BE000000000000000000000000000000000000000000000000000000000000000000000000000000000000000000282800DC0000DC0028282800DC0000DC28282800000000000028280000000000000000000000000000000000
310
00000000002D00000000002D0000000000280000DC00000000000000DC0000BEAC00000000000000000000000000000000000000000000000000000000000000000000000000000000000000000000000000000000000000000000000000000000BE0000000000000000000000000000000000000000000000000000000000
310
000000000000000000000000000000000000000000000000000000000000000000000000000000BE000000000000000000000000000000000000000000000000000000000000000000000000000000000000000000282800DC2800DC0028282800DC0028DC2828280000000000002828000000000000000000000000000000
310
000000000000002D00000000002D0000000000280000DC00000000000000DC0000BE00AC000000000000000000000000000000000000000000000000000000000000000000000000000000000000000000000000000000000000000000000000000000BE000000000000000000000000000000000000000000000000000000
310
0000000000000000000000000000000000000000000000000000000000000000000000000000000000BE000000000000000000000000000000000000000000000000000000000000000000000000000000000000000000282800DC2800DC0028282800DC0028DC282828000000000000282800000000000000000000000000
310
0000000000000000002D00000000002D0000000000280000DC00000000000000DC0000BEAC00000000000000000000000000000000000000000000000000000000000000000000000000000000000000000000000000000000000000000000000000000000BE00000000000000000000000000000000000000000000000000
310
00000000000000000000000000000000000000000000000000000000000000000000000000000000000000BE000000000000000000000000000000000000000000000000000000000000000000000000000000000000000000282800DC2800DC0028282800DC0028DC28282800000000000028280000000000000000000000
310
00000000000000000000002D00000000002D0000000000280000DC00000000000000DC0000BE00AC000000000000000000000000000000000000000000000000000000000000000000000000000000000000000000000000000000000000000000000000000000BE0000000000000000000000000000000000000000000000
310
000000000000000000000000000000000000000000000000000000000000000000000000000000000000000000BE000000000000000000000000000000000000000000000000000000000000000000000000000000000000000000282800DC2800DC0028282800DC0028DC2828280000000000002828000000000000000000
310
000000000000000000000000002D00000000002D0000000000280000DC00000000000000DC0000BEAC00000000000000000000000000000000000000000000000000000000000000000000000000000000000000000000000000000000000000000000000000000000BE000000000000000000000000000000000000000000
310
0000000000000000000000000000000000000000000000000000000000000000000000000000000000000000000000BE000000000000000000000000000000000000000000000000000000000000000000000000000000000000000000282800DC2800DC0028282800DC0028DC282828000000000000282800000000000000
310
0000000000000000000000000000002D00000000002D0000000000280000DC00000000000000DC0000BE00AC000000000000000000000000000000000000000000000000000000000000000000000000000000000000000000000000000000000000000000000000000000BE00000000000000000000000000000000000000
310
00000000000000000000000000000000000000000000000000000000000000000000000000000000000000000000000000BE000000000000000000000000000000000000000000000000000000000000000000000000000000000000000000282800DC2800DC0028282800DC0028DC28282800000000000028280000000000
310
00000000000000000000000000000000002D00000000002D0000000000280000DC00000000000000DC0000BEAC00000000000000000000000000000000000000000000000000000000000000000000000000000000000000000000000000000000000000000000000000000000BE0000000000000000000000000000000000
310
000000000000000000000000000000000000000000000000000000000000000000000000000000000000000000000000000000BE000000000000000000000000000000000000000000000000000000000000000000000000000000000000000000282800DC0000DC0028282800DC0000DC2828280000000000002828000000
310
000000000000000000000000000000000000002D00000000002D0000000000280000DC00000000000000DC0000BE00AC000000000000000000000000000000000000000000000000000000000000000000000000000000000000000000000000000000000000000000000000000000BE000000000000000000000000000000
310
0000000000000000000000000000000000000000000000000000000000000000000000000000000000000000000000000000000000BE000000000000000000000000000000000000000000000000000000000000000000000000000000000000000000282800DC2800DC0028282800DC0028DC282828000000000000282800
310
0000000000000000000000000000000000000000002D00000000002D0000000000280000DC00000000000000DC0000BEAC00000000000000000000000000000000000000000000000000000000000000000000000000000000000000000000000000000000000000000000000000000000BE00000000000000000000000000
310
00000000000000000000000000000000000000000000000000000000000000000000000000000000000000000000000000000000000000BE000000000000000000000000000000000000000000000000000000000000000000000000000000000000000000282800DC2800DC0028282800DC0028DC28282800000000000028
310
28000000000000000000000000000000000000000000002D00000000002D0000000000280000DC00000000000000DC0000BE00AC000000000000000000000000000000000000000000000000000000000000000000000000000000000000000000000000000000000000000000000000000000BE0000000000000000000000
310
000000000000000000000000000000000000000000000000000000000000000000000000000000000000000000000000000000000000000000BE000000000000000000000000000000000000000000000000000000000000000000000000000000000000000000282800DC2800DC0028282800DC0028DC2828280000000000
310
002828000000000000000000000000000000000000000000002D00000000002D0000000000280000DC00000000000000DC0000BEAC00000000000000000000000000000000000000000000000000000000000000000000000000000000000000000000000000000000000000000000000000000000BE000000000000000000
310
0000000000000000000000000000000000000000000000000000000000000000000000000000000000000000000000000000000000000000000000BE000000000000000000000000000000000000000000000000000000000000000000000000000000000000000000282800DC2800DC0028282800DC0028DC282828000000
310
000000282800000000000000000000000000000000000000F500002D00000000002D0000000000280000DC00000000000000DC0000BEACAC000000000000000000000000000000000000000000000000000000000000000000000000000000000000000000000000000000000000000000000000000000BE00000000000000
310
00000000000000000000000000000000000000000000000000000000000000000000000000000000000000000000000000000000000000000000000000BE000000000000000000000000000000000000000000000000000000000000000000000000000000000000000000282800DC2800DC0028282800DC0028DC28282800
310
0000000000282800000000000000000000000000000000000000F500F52D00000000002D0000000000280000DC00000000000000DC0000BEAC00000000000000000000000000000000000000000000000000000000000000000000000000000000000000000000000000000000000000000000000000000000BE0000000000
310
000000000000000000000000000000000000000000000000000000000000000000000000000000000000000000000000000000000000000000000000000000BE000000000000000000000000000000000000000000000000000000000000000000000000000000000000000000282800DC2800DC0028282800DC0028DC2828
310
28000000000000282800000000000000000000000000000000000000F5F5F52D00000000002D0000000000280000DC00000000000000DC0000BEACAC000000000000000000000000000000000000000000000000000000000000000000000000000000000000000000000000000000000000000000000000000000BE000000
310
0000000000000000000000000000000000000000000000000000000000000000000000000000000000000000000000000000000000000000000000000000000000BE000000000000000000000000000000000000000000000000000000000000000000000000000000000000000000282800DC0000DC0028282800DC0000DC
310
282828000000000000282800000000000000000000000000000000000000F5F5F52D00000000002D0000000000280000DC00000000000000DC0000BE00AC000000000000000000000000000000000000000000000000000000000000000000000000000000000000000000000000000000000000000000000000000000BE00
310
00000000000000000000000000000000000000000000000000000000000000000000000000000000000000000000000000000000000000000000000000000000000000BE000000000000000000000000000000000000000000000000000000000000000000000000000000000000000000282800DCDCDCDCDC282828DCDCDC
310
DCDC282828000000000000282800000000000000000000000000000000000000F500F52D00000000002D0000000000280000DC00000000000000DC0000BEAC00000000000000000000000000000000000000000000000000000000000000000000000000000000000000000000000000000000000000000000000000000000
310
BE0000000000000000000000000000000000000000000000000000000000000000000000000000000000000000000000000000000000000000000000000000000000000000BE000000000000000000000000000000000000000000000000000000000000000000000000000000000000000000282800000000000028282800
310
00000000282828000000000000282800000000000000000000000000000000000000F500002D00000000002D0000000000280000DC00000000000000DC0000BE00AC00000000000000000000000000000000000000000000000000000000000000000000000000000000000000000000000000000000000000000000000000
310
0000BE0000000000000000000000000000000000000000000000000000000000000000000000000000000000000000000000000000000000000000000000000000000000000000BE00000000000000000000000000000000000000000000000000000000000000000000000000000000000000000028280000000000002828
310
2800000000002828280000000000002828000000000000000000000000000000000000000000002D00000000002D0000000000280000DC00000000000000DC0000BEAC000000000000000000000000000000000000000000000000000000000000000000000000000000000000000000000000000000000000000000000000
310
00000000BE0000000000000000000000000000000000000000000000000000000000000000000000000000000000000000000000000000000000000000000000000000000000000000BE0000000000000000000000000000000000000000000000000000000000000000000000000000000000000000002828000F0F0F0F00
310
282828000F0F0F0F2828280000000000002828000000000000000000000000000000000000000000002D00000000002D0000000000280000DC00000000000000DC0000BE00AC000000000000000000000000000000000000000000000000000000000000000000000000000000000000000000000000000000000000000000
310
000000000000BE0000000000000000000000000000000000000000000000000000000000000000000000000000000000000000000000000000000000000000000000000000000000000000BE0000000000000000000000000000000000000000000028282828282800282828282828280028282828282800002828000F000F
310
0F00282828000F0F000F282828000000000000282800000000000000000000000000000000000000DCDCDC2D00000000002D0000000000280000DC00000000000000DC0000BEAC0000000000000000000000000000000000000000000000000000000000000000000000000000000000000000000000000000000000000000
310
0000000000000000BE0000000000000000000000000000000000000000000000000000000000000000000000000000000000000000000000000000000000000000000000000000000000000000BE0000000000000000000000000000000000000000000028282828282800282828282828282828282828282800002828000F
310
0F0F0F00282828000F0F000F282828000000000000282800000000000000000000000000000000000000DCDCDC2D0000F5F5F52D0000000000280000DC00000000000000DC0000BE00AC0000000000000000000000000000000000000000000000000000000000000000000000000000000000000000000000000000000000
310
00000000000000000000BE0000000000000000000000000000000000000000000000000000000000000000000000000000000000000000000000000000000000000000000000000000000000000000BE0000000000000000000000000000000000000000000000000000000000000000000000000000000000000000002828
310
000F000F0F0F2828280F0F0F000F282828000000000000282800000000000000000000000000000000000000DCDCDC2D0000F5F5F52D0000000000280000DC00000000000000DC0000BEAC00000000000000000000000000000000000000000000000000000000000000000000000000000000000000000000000000000000
310
000000000000000000000000BE0000000000000000000000000000000000000000000000000000000000000000000000000000000000000000000000000000000000000000000000000000000000000000BE000000000000000000000000000000000000000000002828282828282828282828002828282828282828280000
310
2828000F000F0F0F2828280F0F0F000F282828000000000000282800000000000000000000000000000000000000DCDCDC2D0000F5F5F52D0000000000280000DC00000000000000DC0000BE00AC00000000000000000000000000000000000000000000000000000000000000000000000000000000000000000000000000
310
0000000000000000000000000000BE0000000000000000000000000000000000000000000000000000000000000000000000000000000000000000000000000000000000000000000000000000000000000000BE00000000000000000000000000000000000000000000282828282828282828282800282828282828282800
310
00002828000F0F0F0F0F2828280F0F0F0F0F282828000000000000282800000000000000000000000000000000000000DCDCDC2D00F5F5F5002D0000000000280000DC00000000000000DC0000BEAC000000000000000000000000000000000000000000000000000000000000000000000000000000000000000000000000
310
00000000000000000000000000000000BE0000000000000000000000000000000000000000000000000000000000000000000000000000000000000000000000000000000000000000000000000000000000000000BE0000000000000000000000000000000000000000000028282828282828282828280028282828282828
310
2828000028280000000000002828280000000000282828000000000000282800000000000000000000000000000000000000DCDCDC2D00F5F500002D0000000000280000DC00000000000000DC0000BE00AC000000000000000000000000000000000000000000000000000000000000000000000000000000000000000000
310
000000000000000000000000000000000000BE0000000000000000000000000000000000000000000000000000000000000000000000000000000000000000000000000000000000000000000000000000000000000000BE000000000000000000000000000000000000000000000000000000000000000000000000000000
310
00000000000028280000280028002828280028002800282828000000000000282800000000000000000000000000000000000000DCDCDC2D00000000002D0000000000280000DC00000000000000DC0000BEAC0000000000000000000000000000000000000000000000000000000000000000000000000000000000000000
310
0000000000000000000000000000000000000000BE0000000000000000000000000000000000000000000000000000000000000000000000000000000000000000000000000000000000000000000000000000000000000000BE00000000000000000000000000000000000000000000000000000000000000000000000000
310
0000000000000000282800DCDCDCDCDC282828DCDCDCDCDC282828000000000000282800000000000000000000000000000000000000DCDCDC2D00000000002D0000000000280000DC00000000000000DC0000BEACAC0000000000000000000000000000000000000000000000000000000000000000000000000000000000
310
00000000000000000000000000000000000000000000BE0000000000000000000000000000000000000000000000000000000000000000000000000000000000000000000000000000000000000000000000000000000000000000BE0000000000000000000000000000000000000000000000000000000000000000000000
310
00000000000000000000282800DC2800DC0028282800DC0028DC282828000000000000282800000000000000000000000000000000000000DCDCDC2D00000000002D0000000000280000DC00000000000000DC0000BEAC00000000000000000000000000000000000000000000000000000000000000000000000000000000
310
000000000000000000000000000000000000000000000000BE0000000000000000000000000000000000000000000000000000000000000000000000000000000000000000000000000000000000000000000000000000000000000000BE000000000000000000000000000000000000000000000000000000000000000000
310
000000000000000000000000282800DC2800DC0028282800DC0028DC2828280000000000002828000000000000000000000000000000000000000000002D00000000002D0000000000280000DC00000000000000DC0000BEACAC00000000000000000000000000000000000000000000000000000000000000000000000000
310
0000000000000000000000000000000000000000000000000000BE0000000000000000000000000000000000000000000000000000000000000000000000000000000000000000000000000000000000000000000000000000000000000000BE00000000000000000000000000000000000000000000000000000000000000
310
0000000000000000000000000000282800DC2800DC0028282800DC0028DC2828280000000000002828000000000000000000000000000000000000000000002D00000000002D0000000000280000DC00000000000000DC0000BE00AC0000000000000000000000000000000000000000000000000000000000000000000000
310
00000000000000000000000000000000000000000000000000000000BE0000000000000000000000000000000000000000000000000000000000000000000000000000000000000000000000000000000000000000000000000000000000000000BE0000000000000000000000000000000000000000000000000000000000
310
00000000000000000000000000000000282800DC2800DC0028282800DC0028DC282828000000000000282800000000000000000000000000000000000000DCDCDC2D00000000002D0000000000280000DC00000000000000DC0000BEAC00000000000000000000000000000000000000000000000000000000000000000000
310
000000000000000000000000000000000000000000000000000000000000BE0000000000000000000000000000000000000000000000000000000000000000000000000000000000000000000000000000000000000000000000000000000000000000BE000000000000000000000000000000000000000000000000000000
310
000000000000000000000000000000000000282800DC2800DC0028282800DC0028DC282828000000000000282800000000000000000000000000000000000000DCDCDC2D00000000002D0000000000280000DC00000000000000DC0000BE00AC00000000000000000000000000000000000000000000000000000000000000
310
0000000000000000000000000000000000000000000000000000000000000000BE0000000000000000000000000000000000000000000000000000000000000000000000000000000000000000000000000000000000000000000000000000000000000000BE00000000000000000000000000000000000000000000000000
310
0000000000000000000000000000000000000000282800DC2800DC0028282800DC0028DC282828000000000000282800000000000000000000000000000000000000DCDCDC2D00000000002D0000000000280000DC00000000000000DC0000BEAC000000000000000000000000000000000000000000000000000000000000
310
00000000000000000000000000000000000000000000000000000000000000000000BE0000000000000000000000000000000000000000000000000000000000000000000000000000000000000000000000000000000000000000000000000000000000000000BE0000000000000000000000000000000000000000000000
310
00000000000000000000000000000000000000000000282800DC0000DC0028282800DC0000DC282828000000000000282800000000000000000000000000000000000000DCDCDC2D00000000002D0000000000280000DC00000000000000DC0000BE00AC000000000000000000000000000000000000000000000000000000
310
000000000000000000000000000000000000000000000000000000000000000000000000BE0000000000000000000000000000000000000000000000000000000000000000000000000000000000000000000000000000000000000000000000000000000000000000BE000000000000000000000000000000000000000000
310
000000000000000000000000000000000000000000000000282800DC2800DC0028282800DC0028DC282828000000000000282800000000000000000000000000000000000000DCDCDC2D00000000002D0000000000280000DC00000000000000DC0000BEAC0000000000000000000000000000000000000000000000000000
310
0000000000000000000000000000000000000000000000000000000000000000000000000000BE0000000000000000000000000000000000000000000000000000000000000000000000000000000000000000000000000000000000000000000000000000000000000000BE00000000000000000000000000000000000000
310
0000000000000000000000000000000000000000000000000000282800DC2800DC0028282800DC0028DC282828000000000000282800000000000000000000000000000000000000DCDCDC2D00000000002D0000000000280000DC00000000000000DC0000BE00AC0000000000000000000000000000000000000000000000
310
00000000000000000000000000000000000000000000000000000000000000000000000000000000BE0000000000000000000000000000000000000000000000000000000000000000000000000000000000000000000000000000000000000000000000000000000000000000BE0000000000000000000000000000000000
310
00000000000000000000000000000000000000000000000000000000282800DC2800DC0028282800DC0028DC282828000000000000282800000000000000000000000000000000000000DCDCDC2D00000000002D0000000000280000DC00000000000000DC0000BEAC00000000000000000000000000000000000000000000
310
000000000000000000000000000000000000000000000000000000000000000000000000000000000000BE0000000000000000000000000000000000000000000000000000000000000000000000000000000000000000000000000000000000000000000000000000000000000000BE000000000000000000000000000000
310
000000000000000000000000000000000000000000000000000000000000282800DC2800DC0028282800DC0028DC282828000000000000282800000000000000000000000000000000000000DCDCDC2D00000000002D0000000000280000DC00000000000000DC0000BE00AC00000000000000000000000000000000000000
310
0000000000000000000000000000000000000000000000000000000000000000000000000000000000000000BE0000000000000000000000000000000000000000000000000000000000000000000000000000000000000000000000000000000000000000000000000000000000000000BE00000000000000000000000000
310
0000000000000000000000000000000000000000000000000000000000000000282800DC2800DC0028282800DC0028DC2828280000000000002828000000000000000000000000000000000000000000002D00000000002D0000000000280000DC00000000000000DC0000BEAC000000000000000000000000000000000000
310
00000000000000000000000000000000000000000000000000000000000000000000000000000000000000000000BE0000000000000000000000000000000000000000000000000000000000000000000000000000000000000000000000000000000000000000000000000000000000000000BE0000000000000000000000
310
00000000000000000000000000000000000000000000000000000000000000000000282800DC2800DC0028282800DC0028DC2828280000000000002828000000000000000000000000000000000000000000002D00000000002D0000000000280000DC00000000000000DC0000BE00AC000000000000000000000000000000
310
000000000000000000000000000000000000000000000000000000000000000000000000000000000000000000000000BE0000000000000000000000000000000000000000000000000000000000000000000000000000000000000000000000000000000000000000000000000000000000000000BE000000000000000000
310
000000000000000000000000000000000000000000000000000000000000000000000000282800DC0000DC0028282800DC0000DC2828280000000000002828000000000000000000000000000000000000000000002D00000000002D0000000000280000DC00000000000000DC0000BEAC0000000000282828282828282828
310
2828282828282828282828280000000000000000000000000000000000000000000000000000000000000000000000000000BE0000000000000000000000000000000000000000000000000000000000000000000000000000000000000000000000000000000000000000000000000000000000000000BE00000000000000
310
0000000000000000000000000000000000000000000000000000000000000000000000000000282800DC2800DC0028282800DC0028DC2828BE2800002800282828000000000000000000000000000000000000000000002D00000000002D0000000000280000DC00000000000000DC0000BEACAC0000000028282828282828
310
28282828282828282828282828280000000000000000000000000000000000000000000000000000000000000000000000000000BE0000000000000000000000000000000000000000000000000000000000000000000000000000000000000000000000000000000000000000000000000000000000000000BE0000000000
310
00000000000000000000000000000000000000000000000000000000000000000000000000000000282800DC2800DC0028282800DC0028DC28BEBE280028280028BEBE000000000000000000000000000000000000000000002D00000000002D0000000000280000DC00000000000000DC0000BE00AC000000002828282828
310
282828280000000000000000000000000000000000000000000000000000000000000000000000000000000000000000000000000000BE0000000000000000000000000000000000000000000000000000000000000000000000000000000000000000000000000000000000000000000000000000000000000000BE000000
310
000000000000000000000000000000000000000000000000000000000000000000000000000000000000282800DC2800DC0028282800DC0028DC2828BE28002828002828BE000000000000000000000000000000000000000000002D00000000002D0000000000280000DC00000000000000DC0000BEAC0000000000282828
310
2828282828280000000000000000000000000000000000000000000000000000000000000000000000000000000000000000000000000000BE0000000000000000000000000000000000000000000000000000000000000000000000000000000000000000000000000000000000000000000000000000000000000000BE00
310
0000000000000000000000000000000000000000000000000000000000000000000000000000000000000000282800DC2800DC0028282800DC0028DC2828BE00002828000028BE000000000000000000000000000000000000000000002D00000000002D0000000000280000DC00000000000000DC0000BE00AC0000000000
310
00000000000000000000000000000000000000000000000000000000000000000000000000000000000000000000000000000000000000000000BE0000000000000000000000000000000000000000000000000000000000000000000000000000000000000000000000000000000000000000000000000000000000000000
310
BE000000000000000000000000000000000000000000000000000000000000000000000000282828282828000000282800DC2800DC0028282800DC0028DC2828C3C3C3C3C3C3C3C328000000000000000000000000000000000000000000002D00000000002D000000000028C3C3DCC3C3C3C3C3C3C3DCC3C3BEAC00000000
310
000000000000000000000000000000000000000000000000000000000000000000000000000000000000000000000000000000000000000000000000BE000000000000000000000000000000000000000000000000000000000000000000000000000000000000000000000000000000000000000000000000000000000000
310
0000BE000000000000000000000000000000000000000000000000000000000000000000000000282828282828000000282800DC2800DC0028282800DC0028DC2828C3C3C3C3C3C3C3C328000000000000000000000000000000000000000000002D000000002D2D2D2D2D2D0028C3C3DCC3C3C3C3C3C3C3DCC3C3BE00AC00
310
0000000000000000000000000000000000000000000000000000000000000000000000000000000000000000000000000000000000000000000000000000BE00000000000000000000000000000000000000000000000000000000000000000000000000000000000000000000000000000000000000000000000000000000
310
00000000BE000000000000000000000000000000000000000000000000000000000000000000000000282828282828280000282800DC0000DC0028282800DC0000DC2828280000000000002828000000000000000000000000000000000000000000002D00000000002D0000000000280000DC00000000000000DC0000BEAC
310
00000000000000000000000000000000000000000000000000000000000000000000000000000000000000000000000000000000000000000000000000000000BE0000000000000000000000000000000000000000000000000000000000000000000000000000000000000000000000000000000000000000000000000000
310
000000000000BE000000000000000000000000000000000000000000000000000000000000000000000000000000000000000000282800DC2800DC0028282800DC0028DC2828280000000000002828000000000000000000000000000000000000000000002D00000000002D0000000000280000DC00000000000000DC0000
310
BE00AC000000000000000000000000000000000000000000000000000000000000000000000000000000000000000000000000000000000000000000000000000000BE000000000000000000000000000000000000000000000000000000000000000000000000000000000000000000000000000000000000000000000000
310
0000000000000000BE000000000000000000000000000000000000000000000000000000000000000000000000000000000000000000282800DC2800DC0028282800DC0028DC2828280000000000002828000000000000000000000000000000000000000000002D00000000002D0000000000280000DC00000000000000DC
310
0000BEAC00000000002828282828282828282800000000000000000000000000000000000000000000000000000000000000000000000000000000000000000000000000BE00000000000000000000000000000000000000000000000000000000000000000000000000000000000000000000000000000000000000000000
310
00000000000000000000BE000000000000000000000000000000282800282828282828282828002828282828280028282828282828280000282800DC2800DC0028282800DC0028DC2828280000000000002828000000000000000000000000000000000000000000002D0000F5F5F52D0000000000280028DC000000000000
310
00DC0000BE00AC000000002828282828282828282800000000000000000000000000000000000000000000000000000000000000000000000000000000000000000000000000BE0000000000000000000000000000000000000000000000000000000000000000000000000000000000000000000000000000000000000000
310
000000000000000000000000BE000000000000000000000000000000282828282828282828282828282828282828280028282828282828280000282800DC2800DC0028282800DC0028DC2828280000000000002828000000000000000000000000000000000000000000002D0000F500F52D0000000000280028DC28000000
310
002800DC0000BEAC00000000002828282828282828282828280028282800000000000000000000000000000000000000000000000000000000000000000000000000000000000000BE000000000000000000000000000000000000000000000000000000000000000000000000000000000000000000000000000000000000
310
0000000000000000000000000000BE000000000000000000000000000000000000000000000000000000000000000000000000000000000000000000282800DC2800DC0028282800DC0028DC2828280000000000002828000000000000000000000000000000000000000000002D0000F5F5F52D0000000000280000DC2800
310
0000002800DCACACBEACACACAC00002828282828282828282828280028282800000000000000000000000000000000000000000000000000000000000000000000000000000000000000BE00000000000000000000000000000000000000000000000000000000000000000000000000000000000000000000000000000000
310
00000000000000000000000000000000BE000000000000000000000000000000000000000000000000000000000000000000000000000000000000000000282800DCDCDCDCDC282828DCDCDCDCDC2828280000000000002828000000000000000000000000000000000000000000002D00F5F500F52D00000000002800DCDC
310
DCDCDCDCDCDCDCDC0000BEAC00000000000000000000000000000000000000000000000000000000000000000000000000000000000000000000000000000000000000000000000000000000BE0000000000000000000000000000000000000000000000000000000000000000000000000000000000000000000000000000
310
000000000000000000000000000000000000BE000000000000000000000000000000000000000000000000002828282828282828282828002828282828000000282800DC0000DC0028282800DC0000DC2828280000000000002828000000000000000000000000000000000000000000002D2DF5F500002D00000000002800
310
00DC00000000000000DC0000BEACAC000000000000000000000000000000000000000000000000000000000000000000000000000000000000000000000000000000000000000000000000000000BE000000000000000000000000000000000000000000000000000000000000000000000000000000000000000000000000
310
0000000000000000000000000000000000000000BE000000000000000000000000000000000000000000000000002828282828282828282828282828282828000000282800BEBEBEBE0028282800BEBEBE002828280000000000002828000000000000000000000000000000000000000000002D2D000000002D0000000000
310
2800000000000000000000000000BEAC00000000000000000000000000000000000000000000000000000000000000000000000000000000000000000000000000000000000000000000000000000000BE00000000000000000000000000000000000000000000000000000000000000000000000000000000000000000000
310
00000000000000000000000000000000000000000000BE000000000000000000000000000000000000000000000000000000000000000000000000000000000000000000282828282828282828282828282828282828282828282828282828000000000000000000000000000000000000000000002D00000000002D000000
310
0000BE00C3C3C3C3C3C3C3C3C3C3C3C3BEACAC000000000000000000000000000000000000000000000000000000000000000000000000000000000000000000000000000000000000000000000000000000BE0000000000000000000000000000000000000000000000000000000000000000000000000000000000000000
310
000000000000000000000000000000000000000000000000BE0000000000000000000000000000000000000000000000000000000000000000000000000000000000000000002828282828282828282828282828282828282828282828282828280000000000000000000000000000000000000000002D2D2D2D2D2D2D2D2D
310
2D2D2D00BEBEC3C3C3C3C3C3C3C3C3C3C3C3BE00AC000000000000000000000000000000000000000000000000000000000000000000000000000000000000000000000000000000000000000000000000000000BE000000000000000000000000000000000000000000000000000000000000000000000000000000000000
310
0000000000000000000000000000000000000000000000000000BE00000000000000000000000000000000000000000000000000000000000000000000000000000000000000000000000000000000000000000000000000000000000000000000000000000000000000000000000000000000000000000000000000000000
310
0000000000000000000000000000000000000000ACAC00000000000000000000000000000000000000000000000000000000000000000000000000000000000000000000000000000000000000000000000000000000BE00000000000000000000000000000000000000000000000000000000000000000000000000000000
310
00000000000000000000000000000000000000000000000000000000BE0000000000000000000000000000000000000000000000000000000000000000000000000000000000000000000000000000000000000000000000000000000000000000000000000000000000000000000000000000000000000000000000000000
310
00000000000000000000000000000000000000000000AC00AC000000000000000000000000000000000000000000000000000000000000000000000000000000000000000000000000000000000000000000000000000000BE0000000000000000000000000000000000000000000000000000000000000000000000000000
310
000000000000000000000000000000000000000000000000000000000000BE000000000000000000000000000000000000000000000000000000000000000000000000000000000000000000000000000000000000000000000000000000000000000000000000000000000000000000000000000000000000000000000000
310
000000000000000000000000000000000000000000000000ACAC00000000000000000000000000000000000000000000000000000000000000000000000000000000000000000000000000000000000000000000000000000000BE000000000000000000000000000000000000000000000000000000000000000000000000
310
0000000000000000000000000000000000000000000000000000000000000000BE00000000000000000000000000000000000000000000000000000000000000000000000000000000000000000000000000000000000000000000000000000000000000000000000000000000000000000000000000000000000000000000
310
0000000000000000000000000000000000000000000000000000AC00AC000000000000000000000000000000000000000000000000000000000000000000000000000000000000000000000000000000000000000000000000000000BE00000000000000000000000000000000000000000000000000000000000000000000
310
00000000000000000000000000000000000000000000000000000000000000000000BE0000000000000000000000000000000000000000000000000000000000000000000000000000000000000000000000000000000000000000000000000000000000000000000000000000000000000000000000000000000000000000
310
00000000000000000000000000000000000000000000000000000000000000000000000000000000000000000000000000000000000000000000000000000000000000000000000000000000000000000000000000000000000000000000BE0000000000000000000000000000000000000000000000000000000000000000
310
000000000000000000000000000000000000000000000000000000000000000000000000BE000000000000000000000000000000000000000000000000000000000000000000000000000000000000000000000000000000000000000000000000000000000000000000000000000000000000000000000000000000000000
310
000000000000000000000000000000000000000000000000000000000000000000000000000000000000000000000000000000000000000000000000000000000000000000000000000000000000000000000000000000000000000000000000BE000000000000000000000000000000000000000000000000000000000000
310
0000000000000000000000000000000000000000000000000000000000000000000000000000BE00000000000000000000000000000000000000000000000000000000000000000000000000000000000000000000000000000000000000000000000000000000000000000000000000000000000000000000000000000000
310
0000000000000000000000000000000000000000000000000000000000000000000000000000000000000000000000000000000000000000000000000000000000000000000000000000000000000000000000000000000000000000000000000000BE00000000000000000000000000000000000000000000000000000000
310
00000000000000000000000000000000000000000000000000000000000000000000000000000000BE0000000000000000000000000000000000000000000000000000000000000000000000000000000000000000000000000000000000000000000000000000000000000000000000000000000000000000000000000000
310
00000000000000000000000000000000000000000000000000000000000000000000000000000000000000000000000000000000000000000000000000000000000000000000000000000000000000000000000000000000000000000000000000000000BE0000000000000000000000000000000000000000000000000000
310
000000000000000000000000000000000000000000000000000000000000000000000000000000000000BE000000000000000000000000000000000000000000000000000000000000000000000000000000000000000000000000000000000000000000000000000000000000000000000000000000000000000000000000
310
000000000000000000000000000000000000000000000000000000000000000000000000000000000000000000000000000000000000000000000000000000000000000000000000000000000000000000000000000000000000000000000000000000000000BE000000000000000000000000000000000000000000000000
310
0000000000000000000000000000000000000000000000000000000000000000000000000000000000000000BE00000000000000000000000000000000000000000000000000000000000000000000000000000000000000000000000000000000000000000000000000000000000000000000000000000000000000000000
310
0000000000000000000000000000000000000000000000000000000000000000000000000000000000000000000000000000000000000000000000000000000000000000000000000000000000000000000000000000000000000000000000000000000000000000BE00000000000000000000000000000000000000000000
310
00000000000000000000000000000000000000000000000000000000000000000000000000000000000000000000BE0000000000000000000000000000000000000000000000000000000000000000000000000000000000000000000000000000000000000000000000000000000000000000000000000000000000000000
310
00000000000000000000000000000000000000000000000000000000000000000000000000000000000000000000000000000000000000000000000000000000000000000000000000000000000000000000000000000000000000000000000000000000000000000000BE0000000000000000000000000000000000000000
310
000000000000000000000000000000000000000000000000000000000000000000000000000000000000000000000000BE000000000000000000000000000000000000000000000000000000000000000000000000000000000000000000000000000000000000000000000000000000000000000000000000000000000000
310
000000000000000000000000000000000000000000000000000000000000000000000000000000000000000000000000000000000000000000000000000000000000000000000000000000000000000000000000000000000000000000000000000000000000000000000000BE000000000000000000000000000000000000
310
0000000000000000000000000000000000000000000000000000000000000000000000000000000000000000000000000000BE00000000000000000000000000000000000000000000000000000000000000000000000000000000000000000000000000000000000000000000000000000000000000000000000000000000
310
0000000000000000000000000000000000000000000000000000000000000000000000000000000000000000000000000000000000000000000000000000000000000000000000000000000000000000000000000000000000000000000000000000000000000000000000000000BE00000000000000000000000000000000
310
00000000000000000000000000000000000000000000000000000000000000000000000000000000000000000000000000000000BE0000000000000000000000000000000000000000000000000000000000000000000000000000000000000000000000000000000000000000000000000000000000000000000000000000
310
00000000000000000000000000000000000000000000000000000000000000000000000000000000000000000000000000000000000000000000000000000000000000000000000000000000000000000000000000000000000000000000000000000000000000000000000000000000BE0000000000000000000000000000
310
000000000000000000000000000000000000000000000000000000000000000000000000000000000000000000000000000000000000BE000000000000000000000000000000000000000000000000000000000000000000000000000000000000000000000000000000000000000000000000000000000000000000000000
310
000000000000000000000000000000000000000000000000000000000000000000000000000000000000000000000000000000000000000000000000000000000000000000000000000000000000000000000000000000000000000000000000000000000000000000000000000000000000BE000000000000000000000000
310
0000000000000000000000000000000000000000000000000000000000000000000000000000000000000000000000000000000000000000BE00000000000000000000000000000000000000000000000000000000000000000000000000000000000000000000000000000000000000000000000000000000000000000000
310
0000000000000000000000000000000000000000000000000000000000000000000000000000000000000000000000000000000000000000000000000000000000000000000000000000000000000000000000000000000000000000000000000000000000000000000000000000000000000000BE00000000000000000000
310
00000000000000000000000000000000000000000000000000000000000000000000000000000000000000000000000000000000000000000000BE0000000000000000000000000000000000000000000000000000000000000000000000000000000000000000000000000000000000000000000000000000000000000000
310
00000000000000000000000000000000000000000000000000000000000000000000000000000000000000000000000000000000000000000000000000000000000000000000000000000000000000000000000000000000000000000000000000000000000000000000000000000000000000000000BE0000000000000000
310
000000000000000000000000000000000000000000000000000000000000000000000000000000000000000000000000000000000000000000000000BE000000000000000000000000000000000000000000000000000000000000000000000000000000000000000000000000000000000000000000000000000000000000
310
000000000000000000000000000000000000000000000000000000000000000000000000000000000000000000000000000000000000000000000000000000000000000000000000000000000000000000000000000000000000000000000000000000000000000000000000000000000000000000000000BE000000000000
310
0000000000000000000000000000000000000000000000000000000000000000000000000000000000000000000000000000000000000000000000000000BE00000000000000000000000000000000000000000000000000000000000000000000000000000000000000000000000000000000000000000000000000000000
310
0000000000000000000000000000000000000000000000000000000000000000000000000000000000000000000000000000000000000000000000000000000000000000000000000000000000000000000000000000000000000000000000000000000000000000000000000000000000000000000000000000BE00000000
310
00000000000000000000000000000000000000000000000000000000000000000000000000000000000000000000000000000000000000000000000000000000BEBEBEBEBEBEBEBEBEBEBEBEBEBEBEBEBEBEBEBEBEBEBEBEBEBEBEBEBEBEBEBEBEBEBEBEBEBEBEBEBEBEBEBEBEBEBEBEBEBEBEBEBEBEBEBEBEBEBEBEBEBEBE
310
BEBEBEBEBEBEBEBEBEBEBEBEBEBEBEBEBEBEBEBEBEBEBEBEBEBEBEBEBEBEBEBEBEBEBEBEBEBEBEBEBEBEBEBEBEBEBEBEBEBEBEBEBEBEBEBEBEBEBEBEBEBEBEBEBEBEBEBEBEBEBEBEBEBEBEBEBEBEBEBEBEBEBEBEBEBEBEBEBEBEBEBEBEBEBEBEBEBEBEBEBEBEBEBEBEBEBEBEBEBEBEBEBEBEBEBEBEBEBEBEBEBEBEBEBE0000
310
00000000000000000000000000000000000000000000000000000000000000000000000000000000000000000000000000000000000000000000000000000000000000000000000000000000000000000000000000000000000000000000000000000000000000000000000000000000000000000000000000000000000000
310
00000000000000000000000000000000000000000000000000000000000000000000000000000000000000000000000000000000000000000000000000000000000000000000000000000000000000000000000000000000000000000000000000000000000000000000000000000000000000000000000000000000000000
310
00000000000000000000000000000000000000000000000000000000000000000000
  0
XRECORD
  5
20C8D
102
{ACAD_REACTORS
330
20C8C
102
}
330
20C8C
100
AcDbXrecord
280
     1
102
MATERIAL
148
0.0
149
0.0
149
0.0
 93
        0
 94
       63
282
     0
 72
     1
 77
     1
171
     1
175
     1
179
     1
273
     0
  0
XRECORD
  5
20C8B
102
{ACAD_REACTORS
330
20C8A
102
}
330
20C8A
100
AcDbXrecord
280
     1
102
MATERIAL
148
0.0
149
0.0
149
0.0
 93
        0
 94
       63
282
     0
 72
     1
 77
     1
171
     1
175
     1
179
     1
273
     0
  0
XRECORD
  5
20C8F
102
{ACAD_REACTORS
330
20C8E
102
}
330
20C8E
100
AcDbXrecord
280
     1
102
MATERIAL
148
0.0
149
0.0
149
0.0
 93
        0
 94
       63
282
     0
 72
     1
 77
     1
171
     1
175
     1
179
     1
273
     0
  0
CELLSTYLEMAP
  5
20C88
102
{ACAD_REACTORS
330
1950A
102
}
330
1950A
100
AcDbCellStyleMap
 90
        3
300
CELLSTYLE
  1
TABLEFORMAT_BEGIN
 90
        5
170
     1
 91
        0
 92
    32768
 62
   257
 93
        1
300
CONTENTFORMAT
  1
CONTENTFORMAT_BEGIN
 90
        0
 91
        0
 92
      512
 93
        0
300

 40
0.0
140
1.0
 94
        5
 62
     0
340
10
144
0.25
309
CONTENTFORMAT_END
171
     0
 94
        6
 95
        1
302
GRIDFORMAT
  1
GRIDFORMAT_BEGIN
 90
        0
 91
        1
 62
     0
 92
       -2
340
0
 93
        0
 40
0.045
309
GRIDFORMAT_END
 95
        2
302
GRIDFORMAT
  1
GRIDFORMAT_BEGIN
 90
        0
 91
        1
 62
     0
 92
       -2
340
0
 93
        0
 40
0.045
309
GRIDFORMAT_END
 95
        4
302
GRIDFORMAT
  1
GRIDFORMAT_BEGIN
 90
        0
 91
        1
 62
     0
 92
       -2
340
0
 93
        0
 40
0.045
309
GRIDFORMAT_END
 95
        8
302
GRIDFORMAT
  1
GRIDFORMAT_BEGIN
 90
        0
 91
        1
 62
     0
 92
       -2
340
0
 93
        0
 40
0.045
309
GRIDFORMAT_END
 95
       16
302
GRIDFORMAT
  1
GRIDFORMAT_BEGIN
 90
        0
 91
        1
 62
     0
 92
       -2
340
0
 93
        0
 40
0.045
309
GRIDFORMAT_END
 95
       32
302
GRIDFORMAT
  1
GRIDFORMAT_BEGIN
 90
        0
 91
        1
 62
     0
 92
       -2
340
0
 93
        0
 40
0.045
309
GRIDFORMAT_END
309
TABLEFORMAT_END
  1
CELLSTYLE_BEGIN
 90
        1
 91
        1
300
_TITLE
309
CELLSTYLE_END
300
CELLSTYLE
  1
TABLEFORMAT_BEGIN
 90
        5
170
     1
 91
        0
 92
        0
 62
   257
 93
        1
300
CONTENTFORMAT
  1
CONTENTFORMAT_BEGIN
 90
        0
 91
        0
 92
      512
 93
        0
300

 40
0.0
140
1.0
 94
        5
 62
     0
340
10
144
0.18
309
CONTENTFORMAT_END
171
     0
 94
        6
 95
        1
302
GRIDFORMAT
  1
GRIDFORMAT_BEGIN
 90
        0
 91
        1
 62
     0
 92
       -2
340
0
 93
        0
 40
0.045
309
GRIDFORMAT_END
 95
        2
302
GRIDFORMAT
  1
GRIDFORMAT_BEGIN
 90
        0
 91
        1
 62
     0
 92
       -2
340
0
 93
        0
 40
0.045
309
GRIDFORMAT_END
 95
        4
302
GRIDFORMAT
  1
GRIDFORMAT_BEGIN
 90
        0
 91
        1
 62
     0
 92
       -2
340
0
 93
        0
 40
0.045
309
GRIDFORMAT_END
 95
        8
302
GRIDFORMAT
  1
GRIDFORMAT_BEGIN
 90
        0
 91
        1
 62
     0
 92
       -2
340
0
 93
        0
 40
0.045
309
GRIDFORMAT_END
 95
       16
302
GRIDFORMAT
  1
GRIDFORMAT_BEGIN
 90
        0
 91
        1
 62
     0
 92
       -2
340
0
 93
        0
 40
0.045
309
GRIDFORMAT_END
 95
       32
302
GRIDFORMAT
  1
GRIDFORMAT_BEGIN
 90
        0
 91
        1
 62
     0
 92
       -2
340
0
 93
        0
 40
0.045
309
GRIDFORMAT_END
309
TABLEFORMAT_END
  1
CELLSTYLE_BEGIN
 90
        2
 91
        1
300
_HEADER
309
CELLSTYLE_END
300
CELLSTYLE
  1
TABLEFORMAT_BEGIN
 90
        5
170
     1
 91
        0
 92
        0
 62
   257
 93
        1
300
CONTENTFORMAT
  1
CONTENTFORMAT_BEGIN
 90
        0
 91
        0
 92
      512
 93
        0
300

 40
0.0
140
1.0
 94
        2
 62
     0
340
10
144
0.18
309
CONTENTFORMAT_END
171
     0
 94
        6
 95
        1
302
GRIDFORMAT
  1
GRIDFORMAT_BEGIN
 90
        0
 91
        1
 62
     0
 92
       -2
340
0
 93
        0
 40
0.045
309
GRIDFORMAT_END
 95
        2
302
GRIDFORMAT
  1
GRIDFORMAT_BEGIN
 90
        0
 91
        1
 62
     0
 92
       -2
340
0
 93
        0
 40
0.045
309
GRIDFORMAT_END
 95
        4
302
GRIDFORMAT
  1
GRIDFORMAT_BEGIN
 90
        0
 91
        1
 62
     0
 92
       -2
340
0
 93
        0
 40
0.045
309
GRIDFORMAT_END
 95
        8
302
GRIDFORMAT
  1
GRIDFORMAT_BEGIN
 90
        0
 91
        1
 62
     0
 92
       -2
340
0
 93
        0
 40
0.045
309
GRIDFORMAT_END
 95
       16
302
GRIDFORMAT
  1
GRIDFORMAT_BEGIN
 90
        0
 91
        1
 62
     0
 92
       -2
340
0
 93
        0
 40
0.045
309
GRIDFORMAT_END
 95
       32
302
GRIDFORMAT
  1
GRIDFORMAT_BEGIN
 90
        0
 91
        1
 62
     0
 92
       -2
340
0
 93
        0
 40
0.045
309
GRIDFORMAT_END
309
TABLEFORMAT_END
  1
CELLSTYLE_BEGIN
 90
        3
 91
        2
300
_DATA
309
CELLSTYLE_END
  0
XRECORD
  5
20CA8
102
{ACAD_REACTORS
330
1950A
102
}
330
1950A
100
AcDbXrecord
280
     1
102
ACAD_ROUNDTRIP_PRE2007_TABLESTYLE
 90
      512
 91
        0
  1

 92
      512
 93
        0
  2

 94
      512
 95
        0
  3

  0
XRECORD
  5
20C9B
102
{ACAD_REACTORS
330
20C9A
102
}
330
20C9A
100
AcDbXrecord
280
     1
102
RTVSPost2010Prop28
280
     1
102
RTVSPost2010PropOp28
 70
     1
102
RTVSPost2010Prop29
280
     1
102
RTVSPost2010PropOp29
 70
     1
102
RTVSPost2010Prop30
280
     0
102
RTVSPost2010PropOp30
 70
     1
102
RTVSPost2010Prop31
280
     0
102
RTVSPost2010PropOp31
 70
     1
102
RTVSPost2010Prop32
280
     0
102
RTVSPost2010PropOp32
 70
     1
102
RTVSPost2010Prop33
280
     0
102
RTVSPost2010PropOp33
 70
     1
102
RTVSPost2010Prop34
280
     0
102
RTVSPost2010PropOp34
 70
     1
102
RTVSPost2010Prop35
280
     0
102
RTVSPost2010PropOp35
 70
     1
102
RTVSPost2010Prop36
280
     0
102
RTVSPost2010PropOp36
 70
     1
102
RTVSPost2010Prop37
 90
       50
102
RTVSPost2010PropOp37
 70
     1
102
RTVSPost2010Prop38
140
0.0
102
RTVSPost2010PropOp38
 70
     1
102
RTVSPost2010Prop39
140
1.0
102
RTVSPost2010PropOp39
 70
     1
102
RTVSPost2010Prop40
 90
        0
102
RTVSPost2010PropOp40
 70
     1
102
RTVSPost2010Prop41ColorIndex
 90
       18
102
RTVSPost2010Prop41ColorRGB
 90
        0
102
RTVSPost2010PropOp41
 70
     1
102
RTVSPost2010Prop42
 90
       50
102
RTVSPost2010PropOp42
 70
     1
102
RTVSPost2010Prop43
 90
        3
102
RTVSPost2010PropOp43
 70
     1
102
RTVSPost2010Prop44ColorIndex
 90
        5
102
RTVSPost2010Prop44ColorRGB
 90
      255
102
RTVSPost2010PropOp44
 70
     1
102
RTVSPost2010Prop45
280
     0
102
RTVSPost2010PropOp45
 70
     1
102
RTVSPost2010Prop46
 90
       50
102
RTVSPost2010PropOp46
 70
     1
102
RTVSPost2010Prop47
 90
       50
102
RTVSPost2010PropOp47
 70
     1
102
RTVSPost2010Prop48
 90
       50
102
RTVSPost2010PropOp48
 70
     1
102
RTVSPost2010Prop49
280
     0
102
RTVSPost2010PropOp49
 70
     1
102
RTVSPost2010Prop50
 90
       50
102
RTVSPost2010PropOp50
 70
     1
102
RTVSPost2010Prop51ColorIndex
 90
      256
102
RTVSPost2010Prop51ColorRGB
 90
-16777216
102
RTVSPost2010PropOp51
 70
     0
102
RTVSPost2010Prop52
140
1.0
102
RTVSPost2010PropOp52
 70
     0
102
RTVSPost2010Prop53
 90
        2
102
RTVSPost2010PropOp53
 70
     1
102
RTVSPost2010Prop54
  1
strokes_ogs.tif
102
RTVSPost2010PropOp54
 70
     1
102
RTVSPost2010Prop55
280
     0
102
RTVSPost2010PropOp55
 70
     1
102
RTVSPost2010Prop56
140
1.0
102
RTVSPost2010PropOp56
 70
     1
102
RTVSPost2010Prop57
140
1.0
102
RTVSPost2010PropOp57
 70
     1
102
RTVSPropertyOp0
 70
     1
102
RTVSPropertyOp1
 70
     1
102
RTVSPropertyOp2
 70
     1
102
RTVSPropertyOp3
 70
     1
102
RTVSPropertyOp4
 70
     1
102
RTVSPropertyOp5
 70
     1
102
RTVSPropertyOp6
 70
     1
102
RTVSPropertyOp7
 70
     1
102
RTVSPropertyOp8
 70
     1
102
RTVSPropertyOp9
 70
     1
102
RTVSPropertyOp10
 70
     1
102
RTVSPropertyOp11
 70
     1
102
RTVSPropertyOp12
 70
     1
102
RTVSPropertyOp13
 70
     1
102
RTVSPropertyOp14
 70
     1
102
RTVSPropertyOp15
 70
     1
102
RTVSPropertyOp16
 70
     1
102
RTVSPropertyOp17
 70
     1
102
RTVSPropertyOp18
 70
     1
102
RTVSPropertyOp19
 70
     1
102
RTVSPropertyOp20
 70
     1
102
RTVSPropertyOp21
 70
     1
102
RTVSPropertyOp22
 70
     1
102
RTVSPropertyOp23
 70
     1
102
RTVSPropertyOp24
 70
     1
102
RTVSPropertyOp25
 70
     1
102
RTVSPropertyOp26
 70
     1
102
RTVSPropertyOp27
 70
     1
102
RTVSPropertyOp28
 70
     1
102
RTVSPropertyOp29
 70
     1
102
RTVSPropertyOp30
 70
     1
102
RTVSPropertyOp31
 70
     1
102
RTVSPropertyOp32
 70
     1
102
RTVSPropertyOp33
 70
     1
102
RTVSPropertyOp34
 70
     1
102
RTVSPropertyOp35
 70
     1
102
RTVSPropertyOp36
 70
     1
102
RTVSPropertyOp37
 70
     1
102
RTVSPropertyOp38
 70
     1
102
RTVSPropertyOp39
 70
     1
102
RTVSPropertyOp40
 70
     1
102
RTVSPropertyOp41
 70
     1
102
RTVSPropertyOp42
 70
     1
102
RTVSPropertyOp43
 70
     1
102
RTVSPropertyOp44
 70
     1
102
RTVSPropertyOp45
 70
     1
102
RTVSPropertyOp46
 70
     1
102
RTVSPropertyOp47
 70
     1
102
RTVSPropertyOp48
 70
     1
102
RTVSPropertyOp49
 70
     1
102
RTVSPropertyOp50
 70
     1
102
RTVSPropertyOp51
 70
     0
102
RTVSPropertyOp52
 70
     0
102
RTVSPropertyOp53
 70
     1
102
RTVSPropertyOp54
 70
     1
102
RTVSPropertyOp55
 70
     1
102
RTVSPropertyOp56
 70
     1
102
RTVSPropertyOp57
 70
     1
102
RTVSPropertyOp58
 70
     1
102
RTVSPropertyOp59
 70
     1
102
RTVSPropertyOp60
 70
     1
102
RTVSPropertyOp61
 70
     1
102
RTVSPropertyOp62
 70
     1
  0
XRECORD
  5
20CAC
102
{ACAD_REACTORS
330
20CAB
102
}
330
20CAB
100
AcDbXrecord
280
     1
102
RTVSPost2010Prop28
280
     0
102
RTVSPost2010PropOp28
 70
     1
102
RTVSPost2010Prop29
280
     1
102
RTVSPost2010PropOp29
 70
     1
102
RTVSPost2010Prop30
280
     1
102
RTVSPost2010PropOp30
 70
     1
102
RTVSPost2010Prop31
280
     0
102
RTVSPost2010PropOp31
 70
     1
102
RTVSPost2010Prop32
280
     0
102
RTVSPost2010PropOp32
 70
     1
102
RTVSPost2010Prop33
280
     0
102
RTVSPost2010PropOp33
 70
     1
102
RTVSPost2010Prop34
280
     0
102
RTVSPost2010PropOp34
 70
     1
102
RTVSPost2010Prop35
280
     0
102
RTVSPost2010PropOp35
 70
     1
102
RTVSPost2010Prop36
280
     0
102
RTVSPost2010PropOp36
 70
     1
102
RTVSPost2010Prop37
 90
       50
102
RTVSPost2010PropOp37
 70
     1
102
RTVSPost2010Prop38
140
0.0
102
RTVSPost2010PropOp38
 70
     1
102
RTVSPost2010Prop39
140
1.0
102
RTVSPost2010PropOp39
 70
     1
102
RTVSPost2010Prop40
 90
        0
102
RTVSPost2010PropOp40
 70
     1
102
RTVSPost2010Prop41ColorIndex
 90
       18
102
RTVSPost2010Prop41ColorRGB
 90
        0
102
RTVSPost2010PropOp41
 70
     1
102
RTVSPost2010Prop42
 90
       50
102
RTVSPost2010PropOp42
 70
     1
102
RTVSPost2010Prop43
 90
        3
102
RTVSPost2010PropOp43
 70
     1
102
RTVSPost2010Prop44ColorIndex
 90
        5
102
RTVSPost2010Prop44ColorRGB
 90
      255
102
RTVSPost2010PropOp44
 70
     1
102
RTVSPost2010Prop45
280
     0
102
RTVSPost2010PropOp45
 70
     1
102
RTVSPost2010Prop46
 90
       50
102
RTVSPost2010PropOp46
 70
     1
102
RTVSPost2010Prop47
 90
       50
102
RTVSPost2010PropOp47
 70
     1
102
RTVSPost2010Prop48
 90
       50
102
RTVSPost2010PropOp48
 70
     1
102
RTVSPost2010Prop49
280
     0
102
RTVSPost2010PropOp49
 70
     1
102
RTVSPost2010Prop50
 90
       50
102
RTVSPost2010PropOp50
 70
     1
102
RTVSPost2010Prop51ColorIndex
 90
      256
102
RTVSPost2010Prop51ColorRGB
 90
-16777216
102
RTVSPost2010PropOp51
 70
     0
102
RTVSPost2010Prop52
140
1.0
102
RTVSPost2010PropOp52
 70
     0
102
RTVSPost2010Prop53
 90
        2
102
RTVSPost2010PropOp53
 70
     1
102
RTVSPost2010Prop54
  1
strokes_ogs.tif
102
RTVSPost2010PropOp54
 70
     1
102
RTVSPost2010Prop55
280
     0
102
RTVSPost2010PropOp55
 70
     1
102
RTVSPost2010Prop56
140
1.0
102
RTVSPost2010PropOp56
 70
     1
102
RTVSPost2010Prop57
140
1.0
102
RTVSPost2010PropOp57
 70
     1
102
RTVSPropertyOp0
 70
     1
102
RTVSPropertyOp1
 70
     1
102
RTVSPropertyOp2
 70
     1
102
RTVSPropertyOp3
 70
     1
102
RTVSPropertyOp4
 70
     1
102
RTVSPropertyOp5
 70
     1
102
RTVSPropertyOp6
 70
     1
102
RTVSPropertyOp7
 70
     1
102
RTVSPropertyOp8
 70
     1
102
RTVSPropertyOp9
 70
     1
102
RTVSPropertyOp10
 70
     1
102
RTVSPropertyOp11
 70
     1
102
RTVSPropertyOp12
 70
     1
102
RTVSPropertyOp13
 70
     1
102
RTVSPropertyOp14
 70
     1
102
RTVSPropertyOp15
 70
     1
102
RTVSPropertyOp16
 70
     1
102
RTVSPropertyOp17
 70
     1
102
RTVSPropertyOp18
 70
     1
102
RTVSPropertyOp19
 70
     1
102
RTVSPropertyOp20
 70
     1
102
RTVSPropertyOp21
 70
     1
102
RTVSPropertyOp22
 70
     1
102
RTVSPropertyOp23
 70
     1
102
RTVSPropertyOp24
 70
     1
102
RTVSPropertyOp25
 70
     1
102
RTVSPropertyOp26
 70
     1
102
RTVSPropertyOp27
 70
     1
102
RTVSPropertyOp28
 70
     1
102
RTVSPropertyOp29
 70
     1
102
RTVSPropertyOp30
 70
     1
102
RTVSPropertyOp31
 70
     1
102
RTVSPropertyOp32
 70
     1
102
RTVSPropertyOp33
 70
     1
102
RTVSPropertyOp34
 70
     1
102
RTVSPropertyOp35
 70
     1
102
RTVSPropertyOp36
 70
     1
102
RTVSPropertyOp37
 70
     1
102
RTVSPropertyOp38
 70
     1
102
RTVSPropertyOp39
 70
     1
102
RTVSPropertyOp40
 70
     1
102
RTVSPropertyOp41
 70
     1
102
RTVSPropertyOp42
 70
     1
102
RTVSPropertyOp43
 70
     1
102
RTVSPropertyOp44
 70
     1
102
RTVSPropertyOp45
 70
     1
102
RTVSPropertyOp46
 70
     1
102
RTVSPropertyOp47
 70
     1
102
RTVSPropertyOp48
 70
     1
102
RTVSPropertyOp49
 70
     1
102
RTVSPropertyOp50
 70
     1
102
RTVSPropertyOp51
 70
     0
102
RTVSPropertyOp52
 70
     0
102
RTVSPropertyOp53
 70
     1
102
RTVSPropertyOp54
 70
     1
102
RTVSPropertyOp55
 70
     1
102
RTVSPropertyOp56
 70
     1
102
RTVSPropertyOp57
 70
     1
102
RTVSPropertyOp58
 70
     1
102
RTVSPropertyOp59
 70
     1
102
RTVSPropertyOp60
 70
     1
102
RTVSPropertyOp61
 70
     1
102
RTVSPropertyOp62
 70
     1
  0
XRECORD
  5
20CAA
102
{ACAD_REACTORS
330
20CA9
102
}
330
20CA9
100
AcDbXrecord
280
     1
102
RTVSPost2010Prop28
280
     0
102
RTVSPost2010PropOp28
 70
     1
102
RTVSPost2010Prop29
280
     1
102
RTVSPost2010PropOp29
 70
     1
102
RTVSPost2010Prop30
280
     1
102
RTVSPost2010PropOp30
 70
     1
102
RTVSPost2010Prop31
280
     0
102
RTVSPost2010PropOp31
 70
     1
102
RTVSPost2010Prop32
280
     0
102
RTVSPost2010PropOp32
 70
     1
102
RTVSPost2010Prop33
280
     0
102
RTVSPost2010PropOp33
 70
     1
102
RTVSPost2010Prop34
280
     0
102
RTVSPost2010PropOp34
 70
     1
102
RTVSPost2010Prop35
280
     0
102
RTVSPost2010PropOp35
 70
     1
102
RTVSPost2010Prop36
280
     0
102
RTVSPost2010PropOp36
 70
     1
102
RTVSPost2010Prop37
 90
       50
102
RTVSPost2010PropOp37
 70
     1
102
RTVSPost2010Prop38
140
0.0
102
RTVSPost2010PropOp38
 70
     1
102
RTVSPost2010Prop39
140
1.0
102
RTVSPost2010PropOp39
 70
     1
102
RTVSPost2010Prop40
 90
        0
102
RTVSPost2010PropOp40
 70
     1
102
RTVSPost2010Prop41ColorIndex
 90
       18
102
RTVSPost2010Prop41ColorRGB
 90
        0
102
RTVSPost2010PropOp41
 70
     1
102
RTVSPost2010Prop42
 90
       50
102
RTVSPost2010PropOp42
 70
     1
102
RTVSPost2010Prop43
 90
        3
102
RTVSPost2010PropOp43
 70
     1
102
RTVSPost2010Prop44ColorIndex
 90
        5
102
RTVSPost2010Prop44ColorRGB
 90
      255
102
RTVSPost2010PropOp44
 70
     1
102
RTVSPost2010Prop45
280
     0
102
RTVSPost2010PropOp45
 70
     1
102
RTVSPost2010Prop46
 90
       50
102
RTVSPost2010PropOp46
 70
     1
102
RTVSPost2010Prop47
 90
       50
102
RTVSPost2010PropOp47
 70
     1
102
RTVSPost2010Prop48
 90
       50
102
RTVSPost2010PropOp48
 70
     1
102
RTVSPost2010Prop49
280
     0
102
RTVSPost2010PropOp49
 70
     1
102
RTVSPost2010Prop50
 90
       50
102
RTVSPost2010PropOp50
 70
     1
102
RTVSPost2010Prop51ColorIndex
 90
      256
102
RTVSPost2010Prop51ColorRGB
 90
-16777216
102
RTVSPost2010PropOp51
 70
     0
102
RTVSPost2010Prop52
140
1.0
102
RTVSPost2010PropOp52
 70
     0
102
RTVSPost2010Prop53
 90
        2
102
RTVSPost2010PropOp53
 70
     1
102
RTVSPost2010Prop54
  1
strokes_ogs.tif
102
RTVSPost2010PropOp54
 70
     1
102
RTVSPost2010Prop55
280
     0
102
RTVSPost2010PropOp55
 70
     1
102
RTVSPost2010Prop56
140
1.0
102
RTVSPost2010PropOp56
 70
     1
102
RTVSPost2010Prop57
140
1.0
102
RTVSPost2010PropOp57
 70
     1
102
RTVSPropertyOp0
 70
     1
102
RTVSPropertyOp1
 70
     1
102
RTVSPropertyOp2
 70
     1
102
RTVSPropertyOp3
 70
     1
102
RTVSPropertyOp4
 70
     1
102
RTVSPropertyOp5
 70
     1
102
RTVSPropertyOp6
 70
     1
102
RTVSPropertyOp7
 70
     1
102
RTVSPropertyOp8
 70
     1
102
RTVSPropertyOp9
 70
     1
102
RTVSPropertyOp10
 70
     1
102
RTVSPropertyOp11
 70
     1
102
RTVSPropertyOp12
 70
     1
102
RTVSPropertyOp13
 70
     1
102
RTVSPropertyOp14
 70
     1
102
RTVSPropertyOp15
 70
     1
102
RTVSPropertyOp16
 70
     1
102
RTVSPropertyOp17
 70
     1
102
RTVSPropertyOp18
 70
     1
102
RTVSPropertyOp19
 70
     1
102
RTVSPropertyOp20
 70
     1
102
RTVSPropertyOp21
 70
     1
102
RTVSPropertyOp22
 70
     1
102
RTVSPropertyOp23
 70
     1
102
RTVSPropertyOp24
 70
     1
102
RTVSPropertyOp25
 70
     1
102
RTVSPropertyOp26
 70
     1
102
RTVSPropertyOp27
 70
     1
102
RTVSPropertyOp28
 70
     1
102
RTVSPropertyOp29
 70
     1
102
RTVSPropertyOp30
 70
     1
102
RTVSPropertyOp31
 70
     1
102
RTVSPropertyOp32
 70
     1
102
RTVSPropertyOp33
 70
     1
102
RTVSPropertyOp34
 70
     1
102
RTVSPropertyOp35
 70
     1
102
RTVSPropertyOp36
 70
     1
102
RTVSPropertyOp37
 70
     1
102
RTVSPropertyOp38
 70
     1
102
RTVSPropertyOp39
 70
     1
102
RTVSPropertyOp40
 70
     1
102
RTVSPropertyOp41
 70
     1
102
RTVSPropertyOp42
 70
     1
102
RTVSPropertyOp43
 70
     1
102
RTVSPropertyOp44
 70
     1
102
RTVSPropertyOp45
 70
     1
102
RTVSPropertyOp46
 70
     1
102
RTVSPropertyOp47
 70
     1
102
RTVSPropertyOp48
 70
     1
102
RTVSPropertyOp49
 70
     1
102
RTVSPropertyOp50
 70
     1
102
RTVSPropertyOp51
 70
     0
102
RTVSPropertyOp52
 70
     0
102
RTVSPropertyOp53
 70
     1
102
RTVSPropertyOp54
 70
     1
102
RTVSPropertyOp55
 70
     1
102
RTVSPropertyOp56
 70
     1
102
RTVSPropertyOp57
 70
     1
102
RTVSPropertyOp58
 70
     1
102
RTVSPropertyOp59
 70
     1
102
RTVSPropertyOp60
 70
     1
102
RTVSPropertyOp61
 70
     1
102
RTVSPropertyOp62
 70
     1
  0
XRECORD
  5
20C99
102
{ACAD_REACTORS
330
20C98
102
}
330
20C98
100
AcDbXrecord
280
     1
102
RTVSPost2010Prop28
280
     0
102
RTVSPost2010PropOp28
 70
     1
102
RTVSPost2010Prop29
280
     1
102
RTVSPost2010PropOp29
 70
     1
102
RTVSPost2010Prop30
280
     1
102
RTVSPost2010PropOp30
 70
     1
102
RTVSPost2010Prop31
280
     0
102
RTVSPost2010PropOp31
 70
     1
102
RTVSPost2010Prop32
280
     0
102
RTVSPost2010PropOp32
 70
     1
102
RTVSPost2010Prop33
280
     0
102
RTVSPost2010PropOp33
 70
     1
102
RTVSPost2010Prop34
280
     0
102
RTVSPost2010PropOp34
 70
     1
102
RTVSPost2010Prop35
280
     0
102
RTVSPost2010PropOp35
 70
     1
102
RTVSPost2010Prop36
280
     0
102
RTVSPost2010PropOp36
 70
     1
102
RTVSPost2010Prop37
 90
       50
102
RTVSPost2010PropOp37
 70
     1
102
RTVSPost2010Prop38
140
0.0
102
RTVSPost2010PropOp38
 70
     1
102
RTVSPost2010Prop39
140
1.0
102
RTVSPost2010PropOp39
 70
     1
102
RTVSPost2010Prop40
 90
        0
102
RTVSPost2010PropOp40
 70
     1
102
RTVSPost2010Prop41ColorIndex
 90
       18
102
RTVSPost2010Prop41ColorRGB
 90
        0
102
RTVSPost2010PropOp41
 70
     1
102
RTVSPost2010Prop42
 90
       50
102
RTVSPost2010PropOp42
 70
     1
102
RTVSPost2010Prop43
 90
        3
102
RTVSPost2010PropOp43
 70
     1
102
RTVSPost2010Prop44ColorIndex
 90
        5
102
RTVSPost2010Prop44ColorRGB
 90
      255
102
RTVSPost2010PropOp44
 70
     1
102
RTVSPost2010Prop45
280
     0
102
RTVSPost2010PropOp45
 70
     1
102
RTVSPost2010Prop46
 90
       50
102
RTVSPost2010PropOp46
 70
     1
102
RTVSPost2010Prop47
 90
       50
102
RTVSPost2010PropOp47
 70
     1
102
RTVSPost2010Prop48
 90
       50
102
RTVSPost2010PropOp48
 70
     1
102
RTVSPost2010Prop49
280
     0
102
RTVSPost2010PropOp49
 70
     1
102
RTVSPost2010Prop50
 90
       50
102
RTVSPost2010PropOp50
 70
     1
102
RTVSPost2010Prop51ColorIndex
 90
      256
102
RTVSPost2010Prop51ColorRGB
 90
-16777216
102
RTVSPost2010PropOp51
 70
     0
102
RTVSPost2010Prop52
140
1.0
102
RTVSPost2010PropOp52
 70
     0
102
RTVSPost2010Prop53
 90
        2
102
RTVSPost2010PropOp53
 70
     1
102
RTVSPost2010Prop54
  1
strokes_ogs.tif
102
RTVSPost2010PropOp54
 70
     1
102
RTVSPost2010Prop55
280
     0
102
RTVSPost2010PropOp55
 70
     1
102
RTVSPost2010Prop56
140
1.0
102
RTVSPost2010PropOp56
 70
     1
102
RTVSPost2010Prop57
140
1.0
102
RTVSPost2010PropOp57
 70
     1
102
RTVSPropertyOp0
 70
     1
102
RTVSPropertyOp1
 70
     1
102
RTVSPropertyOp2
 70
     1
102
RTVSPropertyOp3
 70
     1
102
RTVSPropertyOp4
 70
     1
102
RTVSPropertyOp5
 70
     1
102
RTVSPropertyOp6
 70
     1
102
RTVSPropertyOp7
 70
     1
102
RTVSPropertyOp8
 70
     1
102
RTVSPropertyOp9
 70
     1
102
RTVSPropertyOp10
 70
     1
102
RTVSPropertyOp11
 70
     1
102
RTVSPropertyOp12
 70
     1
102
RTVSPropertyOp13
 70
     1
102
RTVSPropertyOp14
 70
     1
102
RTVSPropertyOp15
 70
     1
102
RTVSPropertyOp16
 70
     1
102
RTVSPropertyOp17
 70
     1
102
RTVSPropertyOp18
 70
     1
102
RTVSPropertyOp19
 70
     1
102
RTVSPropertyOp20
 70
     1
102
RTVSPropertyOp21
 70
     1
102
RTVSPropertyOp22
 70
     1
102
RTVSPropertyOp23
 70
     1
102
RTVSPropertyOp24
 70
     1
102
RTVSPropertyOp25
 70
     1
102
RTVSPropertyOp26
 70
     1
102
RTVSPropertyOp27
 70
     1
102
RTVSPropertyOp28
 70
     1
102
RTVSPropertyOp29
 70
     1
102
RTVSPropertyOp30
 70
     1
102
RTVSPropertyOp31
 70
     1
102
RTVSPropertyOp32
 70
     1
102
RTVSPropertyOp33
 70
     1
102
RTVSPropertyOp34
 70
     1
102
RTVSPropertyOp35
 70
     1
102
RTVSPropertyOp36
 70
     1
102
RTVSPropertyOp37
 70
     1
102
RTVSPropertyOp38
 70
     1
102
RTVSPropertyOp39
 70
     1
102
RTVSPropertyOp40
 70
     1
102
RTVSPropertyOp41
 70
     1
102
RTVSPropertyOp42
 70
     1
102
RTVSPropertyOp43
 70
     1
102
RTVSPropertyOp44
 70
     1
102
RTVSPropertyOp45
 70
     1
102
RTVSPropertyOp46
 70
     1
102
RTVSPropertyOp47
 70
     1
102
RTVSPropertyOp48
 70
     1
102
RTVSPropertyOp49
 70
     1
102
RTVSPropertyOp50
 70
     1
102
RTVSPropertyOp51
 70
     0
102
RTVSPropertyOp52
 70
     0
102
RTVSPropertyOp53
 70
     1
102
RTVSPropertyOp54
 70
     1
102
RTVSPropertyOp55
 70
     1
102
RTVSPropertyOp56
 70
     1
102
RTVSPropertyOp57
 70
     1
102
RTVSPropertyOp58
 70
     1
102
RTVSPropertyOp59
 70
     1
102
RTVSPropertyOp60
 70
     1
102
RTVSPropertyOp61
 70
     1
102
RTVSPropertyOp62
 70
     1
  0
XRECORD
  5
20C9F
102
{ACAD_REACTORS
330
20C9E
102
}
330
20C9E
100
AcDbXrecord
280
     1
102
RTVSPost2010Prop28
280
     0
102
RTVSPost2010PropOp28
 70
     1
102
RTVSPost2010Prop29
280
     1
102
RTVSPost2010PropOp29
 70
     1
102
RTVSPost2010Prop30
280
     1
102
RTVSPost2010PropOp30
 70
     1
102
RTVSPost2010Prop31
280
     0
102
RTVSPost2010PropOp31
 70
     1
102
RTVSPost2010Prop32
280
     0
102
RTVSPost2010PropOp32
 70
     1
102
RTVSPost2010Prop33
280
     0
102
RTVSPost2010PropOp33
 70
     1
102
RTVSPost2010Prop34
280
     0
102
RTVSPost2010PropOp34
 70
     1
102
RTVSPost2010Prop35
280
     0
102
RTVSPost2010PropOp35
 70
     1
102
RTVSPost2010Prop36
280
     0
102
RTVSPost2010PropOp36
 70
     1
102
RTVSPost2010Prop37
 90
       50
102
RTVSPost2010PropOp37
 70
     1
102
RTVSPost2010Prop38
140
0.0
102
RTVSPost2010PropOp38
 70
     1
102
RTVSPost2010Prop39
140
1.0
102
RTVSPost2010PropOp39
 70
     1
102
RTVSPost2010Prop40
 90
        0
102
RTVSPost2010PropOp40
 70
     1
102
RTVSPost2010Prop41ColorIndex
 90
       18
102
RTVSPost2010Prop41ColorRGB
 90
        0
102
RTVSPost2010PropOp41
 70
     1
102
RTVSPost2010Prop42
 90
       50
102
RTVSPost2010PropOp42
 70
     1
102
RTVSPost2010Prop43
 90
        3
102
RTVSPost2010PropOp43
 70
     1
102
RTVSPost2010Prop44ColorIndex
 90
        5
102
RTVSPost2010Prop44ColorRGB
 90
      255
102
RTVSPost2010PropOp44
 70
     1
102
RTVSPost2010Prop45
280
     0
102
RTVSPost2010PropOp45
 70
     1
102
RTVSPost2010Prop46
 90
       50
102
RTVSPost2010PropOp46
 70
     1
102
RTVSPost2010Prop47
 90
       50
102
RTVSPost2010PropOp47
 70
     1
102
RTVSPost2010Prop48
 90
       50
102
RTVSPost2010PropOp48
 70
     1
102
RTVSPost2010Prop49
280
     0
102
RTVSPost2010PropOp49
 70
     1
102
RTVSPost2010Prop50
 90
       50
102
RTVSPost2010PropOp50
 70
     1
102
RTVSPost2010Prop51ColorIndex
 90
      256
102
RTVSPost2010Prop51ColorRGB
 90
-16777216
102
RTVSPost2010PropOp51
 70
     0
102
RTVSPost2010Prop52
140
1.0
102
RTVSPost2010PropOp52
 70
     0
102
RTVSPost2010Prop53
 90
        2
102
RTVSPost2010PropOp53
 70
     1
102
RTVSPost2010Prop54
  1
strokes_ogs.tif
102
RTVSPost2010PropOp54
 70
     1
102
RTVSPost2010Prop55
280
     0
102
RTVSPost2010PropOp55
 70
     1
102
RTVSPost2010Prop56
140
1.0
102
RTVSPost2010PropOp56
 70
     1
102
RTVSPost2010Prop57
140
1.0
102
RTVSPost2010PropOp57
 70
     1
102
RTVSPropertyOp0
 70
     1
102
RTVSPropertyOp1
 70
     1
102
RTVSPropertyOp2
 70
     1
102
RTVSPropertyOp3
 70
     1
102
RTVSPropertyOp4
 70
     1
102
RTVSPropertyOp5
 70
     1
102
RTVSPropertyOp6
 70
     1
102
RTVSPropertyOp7
 70
     1
102
RTVSPropertyOp8
 70
     1
102
RTVSPropertyOp9
 70
     1
102
RTVSPropertyOp10
 70
     1
102
RTVSPropertyOp11
 70
     1
102
RTVSPropertyOp12
 70
     1
102
RTVSPropertyOp13
 70
     1
102
RTVSPropertyOp14
 70
     1
102
RTVSPropertyOp15
 70
     1
102
RTVSPropertyOp16
 70
     1
102
RTVSPropertyOp17
 70
     1
102
RTVSPropertyOp18
 70
     1
102
RTVSPropertyOp19
 70
     1
102
RTVSPropertyOp20
 70
     1
102
RTVSPropertyOp21
 70
     1
102
RTVSPropertyOp22
 70
     1
102
RTVSPropertyOp23
 70
     1
102
RTVSPropertyOp24
 70
     1
102
RTVSPropertyOp25
 70
     1
102
RTVSPropertyOp26
 70
     1
102
RTVSPropertyOp27
 70
     1
102
RTVSPropertyOp28
 70
     1
102
RTVSPropertyOp29
 70
     1
102
RTVSPropertyOp30
 70
     1
102
RTVSPropertyOp31
 70
     1
102
RTVSPropertyOp32
 70
     1
102
RTVSPropertyOp33
 70
     1
102
RTVSPropertyOp34
 70
     1
102
RTVSPropertyOp35
 70
     1
102
RTVSPropertyOp36
 70
     1
102
RTVSPropertyOp37
 70
     1
102
RTVSPropertyOp38
 70
     1
102
RTVSPropertyOp39
 70
     1
102
RTVSPropertyOp40
 70
     1
102
RTVSPropertyOp41
 70
     1
102
RTVSPropertyOp42
 70
     1
102
RTVSPropertyOp43
 70
     1
102
RTVSPropertyOp44
 70
     1
102
RTVSPropertyOp45
 70
     1
102
RTVSPropertyOp46
 70
     1
102
RTVSPropertyOp47
 70
     1
102
RTVSPropertyOp48
 70
     1
102
RTVSPropertyOp49
 70
     1
102
RTVSPropertyOp50
 70
     1
102
RTVSPropertyOp51
 70
     0
102
RTVSPropertyOp52
 70
     0
102
RTVSPropertyOp53
 70
     1
102
RTVSPropertyOp54
 70
     1
102
RTVSPropertyOp55
 70
     1
102
RTVSPropertyOp56
 70
     1
102
RTVSPropertyOp57
 70
     1
102
RTVSPropertyOp58
 70
     1
102
RTVSPropertyOp59
 70
     1
102
RTVSPropertyOp60
 70
     1
102
RTVSPropertyOp61
 70
     1
102
RTVSPropertyOp62
 70
     1
  0
XRECORD
  5
20CA7
102
{ACAD_REACTORS
330
20CA6
102
}
330
20CA6
100
AcDbXrecord
280
     1
102
RTVSPost2010Prop28
280
     0
102
RTVSPost2010PropOp28
 70
     1
102
RTVSPost2010Prop29
280
     1
102
RTVSPost2010PropOp29
 70
     1
102
RTVSPost2010Prop30
280
     1
102
RTVSPost2010PropOp30
 70
     1
102
RTVSPost2010Prop31
280
     0
102
RTVSPost2010PropOp31
 70
     1
102
RTVSPost2010Prop32
280
     0
102
RTVSPost2010PropOp32
 70
     1
102
RTVSPost2010Prop33
280
     0
102
RTVSPost2010PropOp33
 70
     1
102
RTVSPost2010Prop34
280
     0
102
RTVSPost2010PropOp34
 70
     1
102
RTVSPost2010Prop35
280
     0
102
RTVSPost2010PropOp35
 70
     1
102
RTVSPost2010Prop36
280
     0
102
RTVSPost2010PropOp36
 70
     1
102
RTVSPost2010Prop37
 90
       50
102
RTVSPost2010PropOp37
 70
     1
102
RTVSPost2010Prop38
140
0.0
102
RTVSPost2010PropOp38
 70
     1
102
RTVSPost2010Prop39
140
1.0
102
RTVSPost2010PropOp39
 70
     1
102
RTVSPost2010Prop40
 90
        0
102
RTVSPost2010PropOp40
 70
     1
102
RTVSPost2010Prop41ColorIndex
 90
       18
102
RTVSPost2010Prop41ColorRGB
 90
        0
102
RTVSPost2010PropOp41
 70
     1
102
RTVSPost2010Prop42
 90
       50
102
RTVSPost2010PropOp42
 70
     1
102
RTVSPost2010Prop43
 90
        3
102
RTVSPost2010PropOp43
 70
     1
102
RTVSPost2010Prop44ColorIndex
 90
        5
102
RTVSPost2010Prop44ColorRGB
 90
      255
102
RTVSPost2010PropOp44
 70
     1
102
RTVSPost2010Prop45
280
     0
102
RTVSPost2010PropOp45
 70
     1
102
RTVSPost2010Prop46
 90
       50
102
RTVSPost2010PropOp46
 70
     1
102
RTVSPost2010Prop47
 90
       50
102
RTVSPost2010PropOp47
 70
     1
102
RTVSPost2010Prop48
 90
       50
102
RTVSPost2010PropOp48
 70
     1
102
RTVSPost2010Prop49
280
     0
102
RTVSPost2010PropOp49
 70
     1
102
RTVSPost2010Prop50
 90
       50
102
RTVSPost2010PropOp50
 70
     1
102
RTVSPost2010Prop51ColorIndex
 90
      256
102
RTVSPost2010Prop51ColorRGB
 90
-16777216
102
RTVSPost2010PropOp51
 70
     0
102
RTVSPost2010Prop52
140
1.0
102
RTVSPost2010PropOp52
 70
     0
102
RTVSPost2010Prop53
 90
        2
102
RTVSPost2010PropOp53
 70
     1
102
RTVSPost2010Prop54
  1
strokes_ogs.tif
102
RTVSPost2010PropOp54
 70
     1
102
RTVSPost2010Prop55
280
     0
102
RTVSPost2010PropOp55
 70
     1
102
RTVSPost2010Prop56
140
1.0
102
RTVSPost2010PropOp56
 70
     1
102
RTVSPost2010Prop57
140
1.0
102
RTVSPost2010PropOp57
 70
     1
102
RTVSPropertyOp0
 70
     1
102
RTVSPropertyOp1
 70
     1
102
RTVSPropertyOp2
 70
     1
102
RTVSPropertyOp3
 70
     1
102
RTVSPropertyOp4
 70
     1
102
RTVSPropertyOp5
 70
     1
102
RTVSPropertyOp6
 70
     1
102
RTVSPropertyOp7
 70
     1
102
RTVSPropertyOp8
 70
     1
102
RTVSPropertyOp9
 70
     1
102
RTVSPropertyOp10
 70
     1
102
RTVSPropertyOp11
 70
     1
102
RTVSPropertyOp12
 70
     1
102
RTVSPropertyOp13
 70
     1
102
RTVSPropertyOp14
 70
     1
102
RTVSPropertyOp15
 70
     1
102
RTVSPropertyOp16
 70
     1
102
RTVSPropertyOp17
 70
     1
102
RTVSPropertyOp18
 70
     1
102
RTVSPropertyOp19
 70
     1
102
RTVSPropertyOp20
 70
     1
102
RTVSPropertyOp21
 70
     1
102
RTVSPropertyOp22
 70
     1
102
RTVSPropertyOp23
 70
     1
102
RTVSPropertyOp24
 70
     1
102
RTVSPropertyOp25
 70
     1
102
RTVSPropertyOp26
 70
     1
102
RTVSPropertyOp27
 70
     1
102
RTVSPropertyOp28
 70
     1
102
RTVSPropertyOp29
 70
     1
102
RTVSPropertyOp30
 70
     1
102
RTVSPropertyOp31
 70
     1
102
RTVSPropertyOp32
 70
     1
102
RTVSPropertyOp33
 70
     1
102
RTVSPropertyOp34
 70
     1
102
RTVSPropertyOp35
 70
     1
102
RTVSPropertyOp36
 70
     1
102
RTVSPropertyOp37
 70
     1
102
RTVSPropertyOp38
 70
     1
102
RTVSPropertyOp39
 70
     1
102
RTVSPropertyOp40
 70
     1
102
RTVSPropertyOp41
 70
     1
102
RTVSPropertyOp42
 70
     1
102
RTVSPropertyOp43
 70
     1
102
RTVSPropertyOp44
 70
     1
102
RTVSPropertyOp45
 70
     1
102
RTVSPropertyOp46
 70
     1
102
RTVSPropertyOp47
 70
     1
102
RTVSPropertyOp48
 70
     1
102
RTVSPropertyOp49
 70
     1
102
RTVSPropertyOp50
 70
     1
102
RTVSPropertyOp51
 70
     0
102
RTVSPropertyOp52
 70
     0
102
RTVSPropertyOp53
 70
     1
102
RTVSPropertyOp54
 70
     1
102
RTVSPropertyOp55
 70
     1
102
RTVSPropertyOp56
 70
     1
102
RTVSPropertyOp57
 70
     1
102
RTVSPropertyOp58
 70
     1
102
RTVSPropertyOp59
 70
     1
102
RTVSPropertyOp60
 70
     1
102
RTVSPropertyOp61
 70
     1
102
RTVSPropertyOp62
 70
     1
  0
XRECORD
  5
20CAE
102
{ACAD_REACTORS
330
20CAD
102
}
330
20CAD
100
AcDbXrecord
280
     1
102
RTVSPost2010Prop28
280
     0
102
RTVSPost2010PropOp28
 70
     1
102
RTVSPost2010Prop29
280
     1
102
RTVSPost2010PropOp29
 70
     1
102
RTVSPost2010Prop30
280
     1
102
RTVSPost2010PropOp30
 70
     1
102
RTVSPost2010Prop31
280
     0
102
RTVSPost2010PropOp31
 70
     1
102
RTVSPost2010Prop32
280
     0
102
RTVSPost2010PropOp32
 70
     1
102
RTVSPost2010Prop33
280
     0
102
RTVSPost2010PropOp33
 70
     1
102
RTVSPost2010Prop34
280
     0
102
RTVSPost2010PropOp34
 70
     1
102
RTVSPost2010Prop35
280
     0
102
RTVSPost2010PropOp35
 70
     1
102
RTVSPost2010Prop36
280
     0
102
RTVSPost2010PropOp36
 70
     1
102
RTVSPost2010Prop37
 90
       50
102
RTVSPost2010PropOp37
 70
     1
102
RTVSPost2010Prop38
140
0.0
102
RTVSPost2010PropOp38
 70
     1
102
RTVSPost2010Prop39
140
1.0
102
RTVSPost2010PropOp39
 70
     1
102
RTVSPost2010Prop40
 90
        0
102
RTVSPost2010PropOp40
 70
     1
102
RTVSPost2010Prop41ColorIndex
 90
       18
102
RTVSPost2010Prop41ColorRGB
 90
        0
102
RTVSPost2010PropOp41
 70
     1
102
RTVSPost2010Prop42
 90
       50
102
RTVSPost2010PropOp42
 70
     1
102
RTVSPost2010Prop43
 90
        3
102
RTVSPost2010PropOp43
 70
     1
102
RTVSPost2010Prop44ColorIndex
 90
        5
102
RTVSPost2010Prop44ColorRGB
 90
      255
102
RTVSPost2010PropOp44
 70
     1
102
RTVSPost2010Prop45
280
     0
102
RTVSPost2010PropOp45
 70
     1
102
RTVSPost2010Prop46
 90
       50
102
RTVSPost2010PropOp46
 70
     1
102
RTVSPost2010Prop47
 90
       50
102
RTVSPost2010PropOp47
 70
     1
102
RTVSPost2010Prop48
 90
       50
102
RTVSPost2010PropOp48
 70
     1
102
RTVSPost2010Prop49
280
     0
102
RTVSPost2010PropOp49
 70
     1
102
RTVSPost2010Prop50
 90
       50
102
RTVSPost2010PropOp50
 70
     1
102
RTVSPost2010Prop51ColorIndex
 90
      256
102
RTVSPost2010Prop51ColorRGB
 90
-16777216
102
RTVSPost2010PropOp51
 70
     0
102
RTVSPost2010Prop52
140
1.0
102
RTVSPost2010PropOp52
 70
     0
102
RTVSPost2010Prop53
 90
        2
102
RTVSPost2010PropOp53
 70
     1
102
RTVSPost2010Prop54
  1
strokes_ogs.tif
102
RTVSPost2010PropOp54
 70
     1
102
RTVSPost2010Prop55
280
     0
102
RTVSPost2010PropOp55
 70
     1
102
RTVSPost2010Prop56
140
1.0
102
RTVSPost2010PropOp56
 70
     1
102
RTVSPost2010Prop57
140
1.0
102
RTVSPost2010PropOp57
 70
     1
102
RTVSPropertyOp0
 70
     1
102
RTVSPropertyOp1
 70
     1
102
RTVSPropertyOp2
 70
     1
102
RTVSPropertyOp3
 70
     1
102
RTVSPropertyOp4
 70
     1
102
RTVSPropertyOp5
 70
     1
102
RTVSPropertyOp6
 70
     1
102
RTVSPropertyOp7
 70
     1
102
RTVSPropertyOp8
 70
     1
102
RTVSPropertyOp9
 70
     1
102
RTVSPropertyOp10
 70
     1
102
RTVSPropertyOp11
 70
     1
102
RTVSPropertyOp12
 70
     1
102
RTVSPropertyOp13
 70
     1
102
RTVSPropertyOp14
 70
     1
102
RTVSPropertyOp15
 70
     1
102
RTVSPropertyOp16
 70
     1
102
RTVSPropertyOp17
 70
     1
102
RTVSPropertyOp18
 70
     1
102
RTVSPropertyOp19
 70
     1
102
RTVSPropertyOp20
 70
     1
102
RTVSPropertyOp21
 70
     1
102
RTVSPropertyOp22
 70
     1
102
RTVSPropertyOp23
 70
     1
102
RTVSPropertyOp24
 70
     1
102
RTVSPropertyOp25
 70
     1
102
RTVSPropertyOp26
 70
     1
102
RTVSPropertyOp27
 70
     1
102
RTVSPropertyOp28
 70
     1
102
RTVSPropertyOp29
 70
     1
102
RTVSPropertyOp30
 70
     1
102
RTVSPropertyOp31
 70
     1
102
RTVSPropertyOp32
 70
     1
102
RTVSPropertyOp33
 70
     1
102
RTVSPropertyOp34
 70
     1
102
RTVSPropertyOp35
 70
     1
102
RTVSPropertyOp36
 70
     1
102
RTVSPropertyOp37
 70
     1
102
RTVSPropertyOp38
 70
     1
102
RTVSPropertyOp39
 70
     1
102
RTVSPropertyOp40
 70
     1
102
RTVSPropertyOp41
 70
     1
102
RTVSPropertyOp42
 70
     1
102
RTVSPropertyOp43
 70
     1
102
RTVSPropertyOp44
 70
     1
102
RTVSPropertyOp45
 70
     1
102
RTVSPropertyOp46
 70
     1
102
RTVSPropertyOp47
 70
     1
102
RTVSPropertyOp48
 70
     1
102
RTVSPropertyOp49
 70
     1
102
RTVSPropertyOp50
 70
     1
102
RTVSPropertyOp51
 70
     0
102
RTVSPropertyOp52
 70
     0
102
RTVSPropertyOp53
 70
     1
102
RTVSPropertyOp54
 70
     1
102
RTVSPropertyOp55
 70
     1
102
RTVSPropertyOp56
 70
     1
102
RTVSPropertyOp57
 70
     1
102
RTVSPropertyOp58
 70
     1
102
RTVSPropertyOp59
 70
     1
102
RTVSPropertyOp60
 70
     1
102
RTVSPropertyOp61
 70
     1
102
RTVSPropertyOp62
 70
     1
  0
XRECORD
  5
20C9D
102
{ACAD_REACTORS
330
20C9C
102
}
330
20C9C
100
AcDbXrecord
280
     1
102
RTVSPost2010Prop28
280
     0
102
RTVSPost2010PropOp28
 70
     1
102
RTVSPost2010Prop29
280
     1
102
RTVSPost2010PropOp29
 70
     1
102
RTVSPost2010Prop30
280
     1
102
RTVSPost2010PropOp30
 70
     1
102
RTVSPost2010Prop31
280
     0
102
RTVSPost2010PropOp31
 70
     1
102
RTVSPost2010Prop32
280
     0
102
RTVSPost2010PropOp32
 70
     1
102
RTVSPost2010Prop33
280
     0
102
RTVSPost2010PropOp33
 70
     1
102
RTVSPost2010Prop34
280
     0
102
RTVSPost2010PropOp34
 70
     1
102
RTVSPost2010Prop35
280
     0
102
RTVSPost2010PropOp35
 70
     1
102
RTVSPost2010Prop36
280
     0
102
RTVSPost2010PropOp36
 70
     1
102
RTVSPost2010Prop37
 90
       50
102
RTVSPost2010PropOp37
 70
     1
102
RTVSPost2010Prop38
140
0.0
102
RTVSPost2010PropOp38
 70
     1
102
RTVSPost2010Prop39
140
1.0
102
RTVSPost2010PropOp39
 70
     1
102
RTVSPost2010Prop40
 90
        0
102
RTVSPost2010PropOp40
 70
     1
102
RTVSPost2010Prop41ColorIndex
 90
       18
102
RTVSPost2010Prop41ColorRGB
 90
        0
102
RTVSPost2010PropOp41
 70
     1
102
RTVSPost2010Prop42
 90
       50
102
RTVSPost2010PropOp42
 70
     1
102
RTVSPost2010Prop43
 90
        3
102
RTVSPost2010PropOp43
 70
     1
102
RTVSPost2010Prop44ColorIndex
 90
        5
102
RTVSPost2010Prop44ColorRGB
 90
      255
102
RTVSPost2010PropOp44
 70
     1
102
RTVSPost2010Prop45
280
     0
102
RTVSPost2010PropOp45
 70
     1
102
RTVSPost2010Prop46
 90
       50
102
RTVSPost2010PropOp46
 70
     1
102
RTVSPost2010Prop47
 90
       50
102
RTVSPost2010PropOp47
 70
     1
102
RTVSPost2010Prop48
 90
       50
102
RTVSPost2010PropOp48
 70
     1
102
RTVSPost2010Prop49
280
     0
102
RTVSPost2010PropOp49
 70
     1
102
RTVSPost2010Prop50
 90
       50
102
RTVSPost2010PropOp50
 70
     1
102
RTVSPost2010Prop51ColorIndex
 90
      256
102
RTVSPost2010Prop51ColorRGB
 90
-16777216
102
RTVSPost2010PropOp51
 70
     0
102
RTVSPost2010Prop52
140
1.0
102
RTVSPost2010PropOp52
 70
     0
102
RTVSPost2010Prop53
 90
        2
102
RTVSPost2010PropOp53
 70
     1
102
RTVSPost2010Prop54
  1
strokes_ogs.tif
102
RTVSPost2010PropOp54
 70
     1
102
RTVSPost2010Prop55
280
     0
102
RTVSPost2010PropOp55
 70
     1
102
RTVSPost2010Prop56
140
1.0
102
RTVSPost2010PropOp56
 70
     1
102
RTVSPost2010Prop57
140
1.0
102
RTVSPost2010PropOp57
 70
     1
102
RTVSPropertyOp0
 70
     1
102
RTVSPropertyOp1
 70
     1
102
RTVSPropertyOp2
 70
     1
102
RTVSPropertyOp3
 70
     1
102
RTVSPropertyOp4
 70
     1
102
RTVSPropertyOp5
 70
     1
102
RTVSPropertyOp6
 70
     1
102
RTVSPropertyOp7
 70
     1
102
RTVSPropertyOp8
 70
     1
102
RTVSPropertyOp9
 70
     1
102
RTVSPropertyOp10
 70
     1
102
RTVSPropertyOp11
 70
     1
102
RTVSPropertyOp12
 70
     1
102
RTVSPropertyOp13
 70
     1
102
RTVSPropertyOp14
 70
     1
102
RTVSPropertyOp15
 70
     1
102
RTVSPropertyOp16
 70
     1
102
RTVSPropertyOp17
 70
     1
102
RTVSPropertyOp18
 70
     1
102
RTVSPropertyOp19
 70
     1
102
RTVSPropertyOp20
 70
     1
102
RTVSPropertyOp21
 70
     1
102
RTVSPropertyOp22
 70
     1
102
RTVSPropertyOp23
 70
     1
102
RTVSPropertyOp24
 70
     1
102
RTVSPropertyOp25
 70
     1
102
RTVSPropertyOp26
 70
     1
102
RTVSPropertyOp27
 70
     1
102
RTVSPropertyOp28
 70
     1
102
RTVSPropertyOp29
 70
     1
102
RTVSPropertyOp30
 70
     1
102
RTVSPropertyOp31
 70
     1
102
RTVSPropertyOp32
 70
     1
102
RTVSPropertyOp33
 70
     1
102
RTVSPropertyOp34
 70
     1
102
RTVSPropertyOp35
 70
     1
102
RTVSPropertyOp36
 70
     1
102
RTVSPropertyOp37
 70
     1
102
RTVSPropertyOp38
 70
     1
102
RTVSPropertyOp39
 70
     1
102
RTVSPropertyOp40
 70
     1
102
RTVSPropertyOp41
 70
     1
102
RTVSPropertyOp42
 70
     1
102
RTVSPropertyOp43
 70
     1
102
RTVSPropertyOp44
 70
     1
102
RTVSPropertyOp45
 70
     1
102
RTVSPropertyOp46
 70
     1
102
RTVSPropertyOp47
 70
     1
102
RTVSPropertyOp48
 70
     1
102
RTVSPropertyOp49
 70
     1
102
RTVSPropertyOp50
 70
     1
102
RTVSPropertyOp51
 70
     0
102
RTVSPropertyOp52
 70
     0
102
RTVSPropertyOp53
 70
     1
102
RTVSPropertyOp54
 70
     1
102
RTVSPropertyOp55
 70
     1
102
RTVSPropertyOp56
 70
     1
102
RTVSPropertyOp57
 70
     1
102
RTVSPropertyOp58
 70
     1
102
RTVSPropertyOp59
 70
     1
102
RTVSPropertyOp60
 70
     1
102
RTVSPropertyOp61
 70
     1
102
RTVSPropertyOp62
 70
     1
  0
XRECORD
  5
20CB6
102
{ACAD_REACTORS
330
20CB5
102
}
330
20CB5
100
AcDbXrecord
280
     1
102
RTVSPost2010Prop28
280
     0
102
RTVSPost2010PropOp28
 70
     1
102
RTVSPost2010Prop29
280
     1
102
RTVSPost2010PropOp29
 70
     1
102
RTVSPost2010Prop30
280
     1
102
RTVSPost2010PropOp30
 70
     1
102
RTVSPost2010Prop31
280
     0
102
RTVSPost2010PropOp31
 70
     1
102
RTVSPost2010Prop32
280
     0
102
RTVSPost2010PropOp32
 70
     1
102
RTVSPost2010Prop33
280
     0
102
RTVSPost2010PropOp33
 70
     1
102
RTVSPost2010Prop34
280
     0
102
RTVSPost2010PropOp34
 70
     1
102
RTVSPost2010Prop35
280
     0
102
RTVSPost2010PropOp35
 70
     1
102
RTVSPost2010Prop36
280
     0
102
RTVSPost2010PropOp36
 70
     1
102
RTVSPost2010Prop37
 90
       50
102
RTVSPost2010PropOp37
 70
     1
102
RTVSPost2010Prop38
140
0.0
102
RTVSPost2010PropOp38
 70
     1
102
RTVSPost2010Prop39
140
1.0
102
RTVSPost2010PropOp39
 70
     1
102
RTVSPost2010Prop40
 90
        0
102
RTVSPost2010PropOp40
 70
     1
102
RTVSPost2010Prop41ColorIndex
 90
       18
102
RTVSPost2010Prop41ColorRGB
 90
        0
102
RTVSPost2010PropOp41
 70
     1
102
RTVSPost2010Prop42
 90
       50
102
RTVSPost2010PropOp42
 70
     1
102
RTVSPost2010Prop43
 90
        3
102
RTVSPost2010PropOp43
 70
     1
102
RTVSPost2010Prop44ColorIndex
 90
        5
102
RTVSPost2010Prop44ColorRGB
 90
      255
102
RTVSPost2010PropOp44
 70
     1
102
RTVSPost2010Prop45
280
     0
102
RTVSPost2010PropOp45
 70
     1
102
RTVSPost2010Prop46
 90
       50
102
RTVSPost2010PropOp46
 70
     1
102
RTVSPost2010Prop47
 90
       50
102
RTVSPost2010PropOp47
 70
     1
102
RTVSPost2010Prop48
 90
       50
102
RTVSPost2010PropOp48
 70
     1
102
RTVSPost2010Prop49
280
     0
102
RTVSPost2010PropOp49
 70
     1
102
RTVSPost2010Prop50
 90
       50
102
RTVSPost2010PropOp50
 70
     1
102
RTVSPost2010Prop51ColorIndex
 90
      256
102
RTVSPost2010Prop51ColorRGB
 90
-16777216
102
RTVSPost2010PropOp51
 70
     0
102
RTVSPost2010Prop52
140
1.0
102
RTVSPost2010PropOp52
 70
     0
102
RTVSPost2010Prop53
 90
        2
102
RTVSPost2010PropOp53
 70
     1
102
RTVSPost2010Prop54
  1
strokes_ogs.tif
102
RTVSPost2010PropOp54
 70
     1
102
RTVSPost2010Prop55
280
     0
102
RTVSPost2010PropOp55
 70
     1
102
RTVSPost2010Prop56
140
1.0
102
RTVSPost2010PropOp56
 70
     1
102
RTVSPost2010Prop57
140
1.0
102
RTVSPost2010PropOp57
 70
     1
102
RTVSPropertyOp0
 70
     0
102
RTVSPropertyOp1
 70
     0
102
RTVSPropertyOp2
 70
     0
102
RTVSPropertyOp3
 70
     0
102
RTVSPropertyOp4
 70
     0
102
RTVSPropertyOp5
 70
     0
102
RTVSPropertyOp6
 70
     0
102
RTVSPropertyOp7
 70
     0
102
RTVSPropertyOp8
 70
     0
102
RTVSPropertyOp9
 70
     0
102
RTVSPropertyOp10
 70
     0
102
RTVSPropertyOp11
 70
     0
102
RTVSPropertyOp12
 70
     0
102
RTVSPropertyOp13
 70
     0
102
RTVSPropertyOp14
 70
     2
102
RTVSPropertyOp15
 70
     0
102
RTVSPropertyOp16
 70
     0
102
RTVSPropertyOp17
 70
     0
102
RTVSPropertyOp18
 70
     0
102
RTVSPropertyOp19
 70
     0
102
RTVSPropertyOp20
 70
     0
102
RTVSPropertyOp21
 70
     0
102
RTVSPropertyOp22
 70
     0
102
RTVSPropertyOp23
 70
     0
102
RTVSPropertyOp24
 70
     0
102
RTVSPropertyOp25
 70
     0
102
RTVSPropertyOp26
 70
     0
102
RTVSPropertyOp27
 70
     0
102
RTVSPropertyOp28
 70
     1
102
RTVSPropertyOp29
 70
     1
102
RTVSPropertyOp30
 70
     1
102
RTVSPropertyOp31
 70
     1
102
RTVSPropertyOp32
 70
     1
102
RTVSPropertyOp33
 70
     1
102
RTVSPropertyOp34
 70
     1
102
RTVSPropertyOp35
 70
     1
102
RTVSPropertyOp36
 70
     1
102
RTVSPropertyOp37
 70
     1
102
RTVSPropertyOp38
 70
     1
102
RTVSPropertyOp39
 70
     1
102
RTVSPropertyOp40
 70
     1
102
RTVSPropertyOp41
 70
     1
102
RTVSPropertyOp42
 70
     1
102
RTVSPropertyOp43
 70
     1
102
RTVSPropertyOp44
 70
     1
102
RTVSPropertyOp45
 70
     1
102
RTVSPropertyOp46
 70
     1
102
RTVSPropertyOp47
 70
     1
102
RTVSPropertyOp48
 70
     1
102
RTVSPropertyOp49
 70
     1
102
RTVSPropertyOp50
 70
     1
102
RTVSPropertyOp51
 70
     0
102
RTVSPropertyOp52
 70
     0
102
RTVSPropertyOp53
 70
     1
102
RTVSPropertyOp54
 70
     1
102
RTVSPropertyOp55
 70
     1
102
RTVSPropertyOp56
 70
     1
102
RTVSPropertyOp57
 70
     1
102
RTVSPropertyOp58
 70
     1
102
RTVSPropertyOp59
 70
     1
102
RTVSPropertyOp60
 70
     1
102
RTVSPropertyOp61
 70
     1
102
RTVSPropertyOp62
 70
     1
  0
XRECORD
  5
20CA5
102
{ACAD_REACTORS
330
20CA4
102
}
330
20CA4
100
AcDbXrecord
280
     1
102
RTVSPost2010Prop28
280
     0
102
RTVSPost2010PropOp28
 70
     1
102
RTVSPost2010Prop29
280
     1
102
RTVSPost2010PropOp29
 70
     1
102
RTVSPost2010Prop30
280
     1
102
RTVSPost2010PropOp30
 70
     1
102
RTVSPost2010Prop31
280
     0
102
RTVSPost2010PropOp31
 70
     1
102
RTVSPost2010Prop32
280
     0
102
RTVSPost2010PropOp32
 70
     1
102
RTVSPost2010Prop33
280
     0
102
RTVSPost2010PropOp33
 70
     1
102
RTVSPost2010Prop34
280
     0
102
RTVSPost2010PropOp34
 70
     1
102
RTVSPost2010Prop35
280
     0
102
RTVSPost2010PropOp35
 70
     1
102
RTVSPost2010Prop36
280
     0
102
RTVSPost2010PropOp36
 70
     1
102
RTVSPost2010Prop37
 90
       50
102
RTVSPost2010PropOp37
 70
     1
102
RTVSPost2010Prop38
140
0.0
102
RTVSPost2010PropOp38
 70
     1
102
RTVSPost2010Prop39
140
1.0
102
RTVSPost2010PropOp39
 70
     1
102
RTVSPost2010Prop40
 90
        0
102
RTVSPost2010PropOp40
 70
     1
102
RTVSPost2010Prop41ColorIndex
 90
       18
102
RTVSPost2010Prop41ColorRGB
 90
        0
102
RTVSPost2010PropOp41
 70
     1
102
RTVSPost2010Prop42
 90
       50
102
RTVSPost2010PropOp42
 70
     1
102
RTVSPost2010Prop43
 90
        3
102
RTVSPost2010PropOp43
 70
     1
102
RTVSPost2010Prop44ColorIndex
 90
        5
102
RTVSPost2010Prop44ColorRGB
 90
      255
102
RTVSPost2010PropOp44
 70
     1
102
RTVSPost2010Prop45
280
     0
102
RTVSPost2010PropOp45
 70
     1
102
RTVSPost2010Prop46
 90
       50
102
RTVSPost2010PropOp46
 70
     1
102
RTVSPost2010Prop47
 90
       50
102
RTVSPost2010PropOp47
 70
     1
102
RTVSPost2010Prop48
 90
       50
102
RTVSPost2010PropOp48
 70
     1
102
RTVSPost2010Prop49
280
     0
102
RTVSPost2010PropOp49
 70
     1
102
RTVSPost2010Prop50
 90
       50
102
RTVSPost2010PropOp50
 70
     1
102
RTVSPost2010Prop51ColorIndex
 90
      256
102
RTVSPost2010Prop51ColorRGB
 90
-16777216
102
RTVSPost2010PropOp51
 70
     0
102
RTVSPost2010Prop52
140
1.0
102
RTVSPost2010PropOp52
 70
     0
102
RTVSPost2010Prop53
 90
        2
102
RTVSPost2010PropOp53
 70
     1
102
RTVSPost2010Prop54
  1
strokes_ogs.tif
102
RTVSPost2010PropOp54
 70
     1
102
RTVSPost2010Prop55
280
     0
102
RTVSPost2010PropOp55
 70
     1
102
RTVSPost2010Prop56
140
1.0
102
RTVSPost2010PropOp56
 70
     1
102
RTVSPost2010Prop57
140
1.0
102
RTVSPost2010PropOp57
 70
     1
102
RTVSPropertyOp0
 70
     1
102
RTVSPropertyOp1
 70
     1
102
RTVSPropertyOp2
 70
     1
102
RTVSPropertyOp3
 70
     1
102
RTVSPropertyOp4
 70
     1
102
RTVSPropertyOp5
 70
     1
102
RTVSPropertyOp6
 70
     1
102
RTVSPropertyOp7
 70
     1
102
RTVSPropertyOp8
 70
     1
102
RTVSPropertyOp9
 70
     1
102
RTVSPropertyOp10
 70
     1
102
RTVSPropertyOp11
 70
     1
102
RTVSPropertyOp12
 70
     1
102
RTVSPropertyOp13
 70
     1
102
RTVSPropertyOp14
 70
     1
102
RTVSPropertyOp15
 70
     1
102
RTVSPropertyOp16
 70
     1
102
RTVSPropertyOp17
 70
     1
102
RTVSPropertyOp18
 70
     1
102
RTVSPropertyOp19
 70
     1
102
RTVSPropertyOp20
 70
     1
102
RTVSPropertyOp21
 70
     1
102
RTVSPropertyOp22
 70
     1
102
RTVSPropertyOp23
 70
     1
102
RTVSPropertyOp24
 70
     1
102
RTVSPropertyOp25
 70
     1
102
RTVSPropertyOp26
 70
     1
102
RTVSPropertyOp27
 70
     1
102
RTVSPropertyOp28
 70
     1
102
RTVSPropertyOp29
 70
     1
102
RTVSPropertyOp30
 70
     1
102
RTVSPropertyOp31
 70
     1
102
RTVSPropertyOp32
 70
     1
102
RTVSPropertyOp33
 70
     1
102
RTVSPropertyOp34
 70
     1
102
RTVSPropertyOp35
 70
     1
102
RTVSPropertyOp36
 70
     1
102
RTVSPropertyOp37
 70
     1
102
RTVSPropertyOp38
 70
     1
102
RTVSPropertyOp39
 70
     1
102
RTVSPropertyOp40
 70
     1
102
RTVSPropertyOp41
 70
     1
102
RTVSPropertyOp42
 70
     1
102
RTVSPropertyOp43
 70
     1
102
RTVSPropertyOp44
 70
     1
102
RTVSPropertyOp45
 70
     1
102
RTVSPropertyOp46
 70
     1
102
RTVSPropertyOp47
 70
     1
102
RTVSPropertyOp48
 70
     1
102
RTVSPropertyOp49
 70
     1
102
RTVSPropertyOp50
 70
     1
102
RTVSPropertyOp51
 70
     0
102
RTVSPropertyOp52
 70
     0
102
RTVSPropertyOp53
 70
     1
102
RTVSPropertyOp54
 70
     1
102
RTVSPropertyOp55
 70
     1
102
RTVSPropertyOp56
 70
     1
102
RTVSPropertyOp57
 70
     1
102
RTVSPropertyOp58
 70
     1
102
RTVSPropertyOp59
 70
     1
102
RTVSPropertyOp60
 70
     1
102
RTVSPropertyOp61
 70
     1
102
RTVSPropertyOp62
 70
     1
  0
XRECORD
  5
20C91
102
{ACAD_REACTORS
330
20C90
102
}
330
20C90
100
AcDbXrecord
280
     1
102
RTVSPost2010Prop28
280
     0
102
RTVSPost2010PropOp28
 70
     1
102
RTVSPost2010Prop29
280
     1
102
RTVSPost2010PropOp29
 70
     1
102
RTVSPost2010Prop30
280
     1
102
RTVSPost2010PropOp30
 70
     1
102
RTVSPost2010Prop31
280
     0
102
RTVSPost2010PropOp31
 70
     1
102
RTVSPost2010Prop32
280
     0
102
RTVSPost2010PropOp32
 70
     1
102
RTVSPost2010Prop33
280
     0
102
RTVSPost2010PropOp33
 70
     1
102
RTVSPost2010Prop34
280
     0
102
RTVSPost2010PropOp34
 70
     1
102
RTVSPost2010Prop35
280
     0
102
RTVSPost2010PropOp35
 70
     1
102
RTVSPost2010Prop36
280
     0
102
RTVSPost2010PropOp36
 70
     1
102
RTVSPost2010Prop37
 90
       50
102
RTVSPost2010PropOp37
 70
     1
102
RTVSPost2010Prop38
140
0.0
102
RTVSPost2010PropOp38
 70
     1
102
RTVSPost2010Prop39
140
1.0
102
RTVSPost2010PropOp39
 70
     1
102
RTVSPost2010Prop40
 90
        0
102
RTVSPost2010PropOp40
 70
     1
102
RTVSPost2010Prop41ColorIndex
 90
       18
102
RTVSPost2010Prop41ColorRGB
 90
        0
102
RTVSPost2010PropOp41
 70
     1
102
RTVSPost2010Prop42
 90
       50
102
RTVSPost2010PropOp42
 70
     1
102
RTVSPost2010Prop43
 90
        3
102
RTVSPost2010PropOp43
 70
     1
102
RTVSPost2010Prop44ColorIndex
 90
        5
102
RTVSPost2010Prop44ColorRGB
 90
      255
102
RTVSPost2010PropOp44
 70
     1
102
RTVSPost2010Prop45
280
     0
102
RTVSPost2010PropOp45
 70
     1
102
RTVSPost2010Prop46
 90
       50
102
RTVSPost2010PropOp46
 70
     1
102
RTVSPost2010Prop47
 90
       50
102
RTVSPost2010PropOp47
 70
     1
102
RTVSPost2010Prop48
 90
       50
102
RTVSPost2010PropOp48
 70
     1
102
RTVSPost2010Prop49
280
     0
102
RTVSPost2010PropOp49
 70
     1
102
RTVSPost2010Prop50
 90
       50
102
RTVSPost2010PropOp50
 70
     1
102
RTVSPost2010Prop51ColorIndex
 90
      256
102
RTVSPost2010Prop51ColorRGB
 90
-16777216
102
RTVSPost2010PropOp51
 70
     0
102
RTVSPost2010Prop52
140
1.0
102
RTVSPost2010PropOp52
 70
     0
102
RTVSPost2010Prop53
 90
        2
102
RTVSPost2010PropOp53
 70
     1
102
RTVSPost2010Prop54
  1
strokes_ogs.tif
102
RTVSPost2010PropOp54
 70
     1
102
RTVSPost2010Prop55
280
     0
102
RTVSPost2010PropOp55
 70
     1
102
RTVSPost2010Prop56
140
1.0
102
RTVSPost2010PropOp56
 70
     1
102
RTVSPost2010Prop57
140
1.0
102
RTVSPost2010PropOp57
 70
     1
102
RTVSPropertyOp0
 70
     1
102
RTVSPropertyOp1
 70
     1
102
RTVSPropertyOp2
 70
     1
102
RTVSPropertyOp3
 70
     1
102
RTVSPropertyOp4
 70
     1
102
RTVSPropertyOp5
 70
     1
102
RTVSPropertyOp6
 70
     1
102
RTVSPropertyOp7
 70
     1
102
RTVSPropertyOp8
 70
     1
102
RTVSPropertyOp9
 70
     1
102
RTVSPropertyOp10
 70
     1
102
RTVSPropertyOp11
 70
     1
102
RTVSPropertyOp12
 70
     1
102
RTVSPropertyOp13
 70
     1
102
RTVSPropertyOp14
 70
     1
102
RTVSPropertyOp15
 70
     1
102
RTVSPropertyOp16
 70
     1
102
RTVSPropertyOp17
 70
     1
102
RTVSPropertyOp18
 70
     1
102
RTVSPropertyOp19
 70
     1
102
RTVSPropertyOp20
 70
     1
102
RTVSPropertyOp21
 70
     1
102
RTVSPropertyOp22
 70
     1
102
RTVSPropertyOp23
 70
     1
102
RTVSPropertyOp24
 70
     1
102
RTVSPropertyOp25
 70
     1
102
RTVSPropertyOp26
 70
     1
102
RTVSPropertyOp27
 70
     1
102
RTVSPropertyOp28
 70
     1
102
RTVSPropertyOp29
 70
     1
102
RTVSPropertyOp30
 70
     1
102
RTVSPropertyOp31
 70
     1
102
RTVSPropertyOp32
 70
     1
102
RTVSPropertyOp33
 70
     1
102
RTVSPropertyOp34
 70
     1
102
RTVSPropertyOp35
 70
     1
102
RTVSPropertyOp36
 70
     1
102
RTVSPropertyOp37
 70
     1
102
RTVSPropertyOp38
 70
     1
102
RTVSPropertyOp39
 70
     1
102
RTVSPropertyOp40
 70
     1
102
RTVSPropertyOp41
 70
     1
102
RTVSPropertyOp42
 70
     1
102
RTVSPropertyOp43
 70
     1
102
RTVSPropertyOp44
 70
     1
102
RTVSPropertyOp45
 70
     1
102
RTVSPropertyOp46
 70
     1
102
RTVSPropertyOp47
 70
     1
102
RTVSPropertyOp48
 70
     1
102
RTVSPropertyOp49
 70
     1
102
RTVSPropertyOp50
 70
     1
102
RTVSPropertyOp51
 70
     0
102
RTVSPropertyOp52
 70
     0
102
RTVSPropertyOp53
 70
     1
102
RTVSPropertyOp54
 70
     1
102
RTVSPropertyOp55
 70
     1
102
RTVSPropertyOp56
 70
     1
102
RTVSPropertyOp57
 70
     1
102
RTVSPropertyOp58
 70
     1
102
RTVSPropertyOp59
 70
     1
102
RTVSPropertyOp60
 70
     1
102
RTVSPropertyOp61
 70
     1
102
RTVSPropertyOp62
 70
     1
  0
XRECORD
  5
20C93
102
{ACAD_REACTORS
330
20C92
102
}
330
20C92
100
AcDbXrecord
280
     1
102
RTVSPost2010Prop28
280
     0
102
RTVSPost2010PropOp28
 70
     1
102
RTVSPost2010Prop29
280
     1
102
RTVSPost2010PropOp29
 70
     1
102
RTVSPost2010Prop30
280
     1
102
RTVSPost2010PropOp30
 70
     1
102
RTVSPost2010Prop31
280
     0
102
RTVSPost2010PropOp31
 70
     1
102
RTVSPost2010Prop32
280
     0
102
RTVSPost2010PropOp32
 70
     1
102
RTVSPost2010Prop33
280
     0
102
RTVSPost2010PropOp33
 70
     1
102
RTVSPost2010Prop34
280
     0
102
RTVSPost2010PropOp34
 70
     1
102
RTVSPost2010Prop35
280
     0
102
RTVSPost2010PropOp35
 70
     1
102
RTVSPost2010Prop36
280
     0
102
RTVSPost2010PropOp36
 70
     1
102
RTVSPost2010Prop37
 90
       50
102
RTVSPost2010PropOp37
 70
     1
102
RTVSPost2010Prop38
140
0.0
102
RTVSPost2010PropOp38
 70
     1
102
RTVSPost2010Prop39
140
1.0
102
RTVSPost2010PropOp39
 70
     1
102
RTVSPost2010Prop40
 90
        0
102
RTVSPost2010PropOp40
 70
     1
102
RTVSPost2010Prop41ColorIndex
 90
       18
102
RTVSPost2010Prop41ColorRGB
 90
        0
102
RTVSPost2010PropOp41
 70
     1
102
RTVSPost2010Prop42
 90
       50
102
RTVSPost2010PropOp42
 70
     1
102
RTVSPost2010Prop43
 90
        3
102
RTVSPost2010PropOp43
 70
     1
102
RTVSPost2010Prop44ColorIndex
 90
        5
102
RTVSPost2010Prop44ColorRGB
 90
      255
102
RTVSPost2010PropOp44
 70
     1
102
RTVSPost2010Prop45
280
     0
102
RTVSPost2010PropOp45
 70
     1
102
RTVSPost2010Prop46
 90
       50
102
RTVSPost2010PropOp46
 70
     1
102
RTVSPost2010Prop47
 90
       50
102
RTVSPost2010PropOp47
 70
     1
102
RTVSPost2010Prop48
 90
       50
102
RTVSPost2010PropOp48
 70
     1
102
RTVSPost2010Prop49
280
     0
102
RTVSPost2010PropOp49
 70
     1
102
RTVSPost2010Prop50
 90
       50
102
RTVSPost2010PropOp50
 70
     1
102
RTVSPost2010Prop51ColorIndex
 90
      256
102
RTVSPost2010Prop51ColorRGB
 90
-16777216
102
RTVSPost2010PropOp51
 70
     0
102
RTVSPost2010Prop52
140
1.0
102
RTVSPost2010PropOp52
 70
     0
102
RTVSPost2010Prop53
 90
        2
102
RTVSPost2010PropOp53
 70
     1
102
RTVSPost2010Prop54
  1
strokes_ogs.tif
102
RTVSPost2010PropOp54
 70
     1
102
RTVSPost2010Prop55
280
     0
102
RTVSPost2010PropOp55
 70
     1
102
RTVSPost2010Prop56
140
1.0
102
RTVSPost2010PropOp56
 70
     1
102
RTVSPost2010Prop57
140
1.0
102
RTVSPost2010PropOp57
 70
     1
102
RTVSPropertyOp0
 70
     1
102
RTVSPropertyOp1
 70
     1
102
RTVSPropertyOp2
 70
     1
102
RTVSPropertyOp3
 70
     1
102
RTVSPropertyOp4
 70
     1
102
RTVSPropertyOp5
 70
     1
102
RTVSPropertyOp6
 70
     1
102
RTVSPropertyOp7
 70
     1
102
RTVSPropertyOp8
 70
     1
102
RTVSPropertyOp9
 70
     1
102
RTVSPropertyOp10
 70
     1
102
RTVSPropertyOp11
 70
     1
102
RTVSPropertyOp12
 70
     1
102
RTVSPropertyOp13
 70
     1
102
RTVSPropertyOp14
 70
     1
102
RTVSPropertyOp15
 70
     1
102
RTVSPropertyOp16
 70
     1
102
RTVSPropertyOp17
 70
     1
102
RTVSPropertyOp18
 70
     1
102
RTVSPropertyOp19
 70
     1
102
RTVSPropertyOp20
 70
     1
102
RTVSPropertyOp21
 70
     1
102
RTVSPropertyOp22
 70
     1
102
RTVSPropertyOp23
 70
     1
102
RTVSPropertyOp24
 70
     1
102
RTVSPropertyOp25
 70
     1
102
RTVSPropertyOp26
 70
     1
102
RTVSPropertyOp27
 70
     1
102
RTVSPropertyOp28
 70
     1
102
RTVSPropertyOp29
 70
     1
102
RTVSPropertyOp30
 70
     1
102
RTVSPropertyOp31
 70
     1
102
RTVSPropertyOp32
 70
     1
102
RTVSPropertyOp33
 70
     1
102
RTVSPropertyOp34
 70
     1
102
RTVSPropertyOp35
 70
     1
102
RTVSPropertyOp36
 70
     1
102
RTVSPropertyOp37
 70
     1
102
RTVSPropertyOp38
 70
     1
102
RTVSPropertyOp39
 70
     1
102
RTVSPropertyOp40
 70
     1
102
RTVSPropertyOp41
 70
     1
102
RTVSPropertyOp42
 70
     1
102
RTVSPropertyOp43
 70
     1
102
RTVSPropertyOp44
 70
     1
102
RTVSPropertyOp45
 70
     1
102
RTVSPropertyOp46
 70
     1
102
RTVSPropertyOp47
 70
     1
102
RTVSPropertyOp48
 70
     1
102
RTVSPropertyOp49
 70
     1
102
RTVSPropertyOp50
 70
     1
102
RTVSPropertyOp51
 70
     0
102
RTVSPropertyOp52
 70
     0
102
RTVSPropertyOp53
 70
     1
102
RTVSPropertyOp54
 70
     1
102
RTVSPropertyOp55
 70
     1
102
RTVSPropertyOp56
 70
     1
102
RTVSPropertyOp57
 70
     1
102
RTVSPropertyOp58
 70
     1
102
RTVSPropertyOp59
 70
     1
102
RTVSPropertyOp60
 70
     1
102
RTVSPropertyOp61
 70
     1
102
RTVSPropertyOp62
 70
     1
  0
XRECORD
  5
20C95
102
{ACAD_REACTORS
330
20C94
102
}
330
20C94
100
AcDbXrecord
280
     1
102
RTVSPost2010Prop28
280
     0
102
RTVSPost2010PropOp28
 70
     1
102
RTVSPost2010Prop29
280
     1
102
RTVSPost2010PropOp29
 70
     1
102
RTVSPost2010Prop30
280
     1
102
RTVSPost2010PropOp30
 70
     1
102
RTVSPost2010Prop31
280
     0
102
RTVSPost2010PropOp31
 70
     1
102
RTVSPost2010Prop32
280
     0
102
RTVSPost2010PropOp32
 70
     1
102
RTVSPost2010Prop33
280
     0
102
RTVSPost2010PropOp33
 70
     1
102
RTVSPost2010Prop34
280
     0
102
RTVSPost2010PropOp34
 70
     1
102
RTVSPost2010Prop35
280
     0
102
RTVSPost2010PropOp35
 70
     1
102
RTVSPost2010Prop36
280
     0
102
RTVSPost2010PropOp36
 70
     1
102
RTVSPost2010Prop37
 90
       50
102
RTVSPost2010PropOp37
 70
     1
102
RTVSPost2010Prop38
140
0.0
102
RTVSPost2010PropOp38
 70
     1
102
RTVSPost2010Prop39
140
1.0
102
RTVSPost2010PropOp39
 70
     1
102
RTVSPost2010Prop40
 90
        0
102
RTVSPost2010PropOp40
 70
     1
102
RTVSPost2010Prop41ColorIndex
 90
       18
102
RTVSPost2010Prop41ColorRGB
 90
        0
102
RTVSPost2010PropOp41
 70
     1
102
RTVSPost2010Prop42
 90
       50
102
RTVSPost2010PropOp42
 70
     1
102
RTVSPost2010Prop43
 90
        3
102
RTVSPost2010PropOp43
 70
     1
102
RTVSPost2010Prop44ColorIndex
 90
        5
102
RTVSPost2010Prop44ColorRGB
 90
      255
102
RTVSPost2010PropOp44
 70
     1
102
RTVSPost2010Prop45
280
     0
102
RTVSPost2010PropOp45
 70
     1
102
RTVSPost2010Prop46
 90
       50
102
RTVSPost2010PropOp46
 70
     1
102
RTVSPost2010Prop47
 90
       50
102
RTVSPost2010PropOp47
 70
     1
102
RTVSPost2010Prop48
 90
       50
102
RTVSPost2010PropOp48
 70
     1
102
RTVSPost2010Prop49
280
     0
102
RTVSPost2010PropOp49
 70
     1
102
RTVSPost2010Prop50
 90
       50
102
RTVSPost2010PropOp50
 70
     1
102
RTVSPost2010Prop51ColorIndex
 90
      256
102
RTVSPost2010Prop51ColorRGB
 90
-16777216
102
RTVSPost2010PropOp51
 70
     0
102
RTVSPost2010Prop52
140
1.0
102
RTVSPost2010PropOp52
 70
     0
102
RTVSPost2010Prop53
 90
        2
102
RTVSPost2010PropOp53
 70
     1
102
RTVSPost2010Prop54
  1
strokes_ogs.tif
102
RTVSPost2010PropOp54
 70
     1
102
RTVSPost2010Prop55
280
     0
102
RTVSPost2010PropOp55
 70
     1
102
RTVSPost2010Prop56
140
1.0
102
RTVSPost2010PropOp56
 70
     1
102
RTVSPost2010Prop57
140
1.0
102
RTVSPost2010PropOp57
 70
     1
102
RTVSPropertyOp0
 70
     1
102
RTVSPropertyOp1
 70
     1
102
RTVSPropertyOp2
 70
     1
102
RTVSPropertyOp3
 70
     1
102
RTVSPropertyOp4
 70
     1
102
RTVSPropertyOp5
 70
     1
102
RTVSPropertyOp6
 70
     1
102
RTVSPropertyOp7
 70
     1
102
RTVSPropertyOp8
 70
     1
102
RTVSPropertyOp9
 70
     1
102
RTVSPropertyOp10
 70
     1
102
RTVSPropertyOp11
 70
     1
102
RTVSPropertyOp12
 70
     1
102
RTVSPropertyOp13
 70
     1
102
RTVSPropertyOp14
 70
     1
102
RTVSPropertyOp15
 70
     1
102
RTVSPropertyOp16
 70
     1
102
RTVSPropertyOp17
 70
     1
102
RTVSPropertyOp18
 70
     1
102
RTVSPropertyOp19
 70
     1
102
RTVSPropertyOp20
 70
     1
102
RTVSPropertyOp21
 70
     1
102
RTVSPropertyOp22
 70
     1
102
RTVSPropertyOp23
 70
     1
102
RTVSPropertyOp24
 70
     1
102
RTVSPropertyOp25
 70
     1
102
RTVSPropertyOp26
 70
     1
102
RTVSPropertyOp27
 70
     1
102
RTVSPropertyOp28
 70
     1
102
RTVSPropertyOp29
 70
     1
102
RTVSPropertyOp30
 70
     1
102
RTVSPropertyOp31
 70
     1
102
RTVSPropertyOp32
 70
     1
102
RTVSPropertyOp33
 70
     1
102
RTVSPropertyOp34
 70
     1
102
RTVSPropertyOp35
 70
     1
102
RTVSPropertyOp36
 70
     1
102
RTVSPropertyOp37
 70
     1
102
RTVSPropertyOp38
 70
     1
102
RTVSPropertyOp39
 70
     1
102
RTVSPropertyOp40
 70
     1
102
RTVSPropertyOp41
 70
     1
102
RTVSPropertyOp42
 70
     1
102
RTVSPropertyOp43
 70
     1
102
RTVSPropertyOp44
 70
     1
102
RTVSPropertyOp45
 70
     1
102
RTVSPropertyOp46
 70
     1
102
RTVSPropertyOp47
 70
     1
102
RTVSPropertyOp48
 70
     1
102
RTVSPropertyOp49
 70
     1
102
RTVSPropertyOp50
 70
     1
102
RTVSPropertyOp51
 70
     0
102
RTVSPropertyOp52
 70
     0
102
RTVSPropertyOp53
 70
     1
102
RTVSPropertyOp54
 70
     1
102
RTVSPropertyOp55
 70
     1
102
RTVSPropertyOp56
 70
     1
102
RTVSPropertyOp57
 70
     1
102
RTVSPropertyOp58
 70
     1
102
RTVSPropertyOp59
 70
     1
102
RTVSPropertyOp60
 70
     1
102
RTVSPropertyOp61
 70
     1
102
RTVSPropertyOp62
 70
     1
  0
XRECORD
  5
20C97
102
{ACAD_REACTORS
330
20C96
102
}
330
20C96
100
AcDbXrecord
280
     1
102
RTVSPost2010Prop28
280
     0
102
RTVSPost2010PropOp28
 70
     1
102
RTVSPost2010Prop29
280
     1
102
RTVSPost2010PropOp29
 70
     1
102
RTVSPost2010Prop30
280
     1
102
RTVSPost2010PropOp30
 70
     1
102
RTVSPost2010Prop31
280
     0
102
RTVSPost2010PropOp31
 70
     1
102
RTVSPost2010Prop32
280
     0
102
RTVSPost2010PropOp32
 70
     1
102
RTVSPost2010Prop33
280
     0
102
RTVSPost2010PropOp33
 70
     1
102
RTVSPost2010Prop34
280
     0
102
RTVSPost2010PropOp34
 70
     1
102
RTVSPost2010Prop35
280
     0
102
RTVSPost2010PropOp35
 70
     1
102
RTVSPost2010Prop36
280
     0
102
RTVSPost2010PropOp36
 70
     1
102
RTVSPost2010Prop37
 90
       50
102
RTVSPost2010PropOp37
 70
     1
102
RTVSPost2010Prop38
140
0.0
102
RTVSPost2010PropOp38
 70
     1
102
RTVSPost2010Prop39
140
1.0
102
RTVSPost2010PropOp39
 70
     1
102
RTVSPost2010Prop40
 90
        0
102
RTVSPost2010PropOp40
 70
     1
102
RTVSPost2010Prop41ColorIndex
 90
       18
102
RTVSPost2010Prop41ColorRGB
 90
        0
102
RTVSPost2010PropOp41
 70
     1
102
RTVSPost2010Prop42
 90
       50
102
RTVSPost2010PropOp42
 70
     1
102
RTVSPost2010Prop43
 90
        3
102
RTVSPost2010PropOp43
 70
     1
102
RTVSPost2010Prop44ColorIndex
 90
        5
102
RTVSPost2010Prop44ColorRGB
 90
      255
102
RTVSPost2010PropOp44
 70
     1
102
RTVSPost2010Prop45
280
     0
102
RTVSPost2010PropOp45
 70
     1
102
RTVSPost2010Prop46
 90
       50
102
RTVSPost2010PropOp46
 70
     1
102
RTVSPost2010Prop47
 90
       50
102
RTVSPost2010PropOp47
 70
     1
102
RTVSPost2010Prop48
 90
       50
102
RTVSPost2010PropOp48
 70
     1
102
RTVSPost2010Prop49
280
     0
102
RTVSPost2010PropOp49
 70
     1
102
RTVSPost2010Prop50
 90
       50
102
RTVSPost2010PropOp50
 70
     1
102
RTVSPost2010Prop51ColorIndex
 90
      256
102
RTVSPost2010Prop51ColorRGB
 90
-16777216
102
RTVSPost2010PropOp51
 70
     0
102
RTVSPost2010Prop52
140
1.0
102
RTVSPost2010PropOp52
 70
     0
102
RTVSPost2010Prop53
 90
        2
102
RTVSPost2010PropOp53
 70
     1
102
RTVSPost2010Prop54
  1
strokes_ogs.tif
102
RTVSPost2010PropOp54
 70
     1
102
RTVSPost2010Prop55
280
     0
102
RTVSPost2010PropOp55
 70
     1
102
RTVSPost2010Prop56
140
1.0
102
RTVSPost2010PropOp56
 70
     1
102
RTVSPost2010Prop57
140
1.0
102
RTVSPost2010PropOp57
 70
     1
102
RTVSPropertyOp0
 70
     1
102
RTVSPropertyOp1
 70
     1
102
RTVSPropertyOp2
 70
     1
102
RTVSPropertyOp3
 70
     1
102
RTVSPropertyOp4
 70
     1
102
RTVSPropertyOp5
 70
     1
102
RTVSPropertyOp6
 70
     1
102
RTVSPropertyOp7
 70
     1
102
RTVSPropertyOp8
 70
     1
102
RTVSPropertyOp9
 70
     1
102
RTVSPropertyOp10
 70
     1
102
RTVSPropertyOp11
 70
     1
102
RTVSPropertyOp12
 70
     1
102
RTVSPropertyOp13
 70
     1
102
RTVSPropertyOp14
 70
     1
102
RTVSPropertyOp15
 70
     1
102
RTVSPropertyOp16
 70
     1
102
RTVSPropertyOp17
 70
     1
102
RTVSPropertyOp18
 70
     1
102
RTVSPropertyOp19
 70
     1
102
RTVSPropertyOp20
 70
     1
102
RTVSPropertyOp21
 70
     1
102
RTVSPropertyOp22
 70
     1
102
RTVSPropertyOp23
 70
     1
102
RTVSPropertyOp24
 70
     1
102
RTVSPropertyOp25
 70
     1
102
RTVSPropertyOp26
 70
     1
102
RTVSPropertyOp27
 70
     1
102
RTVSPropertyOp28
 70
     1
102
RTVSPropertyOp29
 70
     1
102
RTVSPropertyOp30
 70
     1
102
RTVSPropertyOp31
 70
     1
102
RTVSPropertyOp32
 70
     1
102
RTVSPropertyOp33
 70
     1
102
RTVSPropertyOp34
 70
     1
102
RTVSPropertyOp35
 70
     1
102
RTVSPropertyOp36
 70
     1
102
RTVSPropertyOp37
 70
     1
102
RTVSPropertyOp38
 70
     1
102
RTVSPropertyOp39
 70
     1
102
RTVSPropertyOp40
 70
     1
102
RTVSPropertyOp41
 70
     1
102
RTVSPropertyOp42
 70
     1
102
RTVSPropertyOp43
 70
     1
102
RTVSPropertyOp44
 70
     1
102
RTVSPropertyOp45
 70
     1
102
RTVSPropertyOp46
 70
     1
102
RTVSPropertyOp47
 70
     1
102
RTVSPropertyOp48
 70
     1
102
RTVSPropertyOp49
 70
     1
102
RTVSPropertyOp50
 70
     1
102
RTVSPropertyOp51
 70
     0
102
RTVSPropertyOp52
 70
     0
102
RTVSPropertyOp53
 70
     1
102
RTVSPropertyOp54
 70
     1
102
RTVSPropertyOp55
 70
     1
102
RTVSPropertyOp56
 70
     1
102
RTVSPropertyOp57
 70
     1
102
RTVSPropertyOp58
 70
     1
102
RTVSPropertyOp59
 70
     1
102
RTVSPropertyOp60
 70
     1
102
RTVSPropertyOp61
 70
     1
102
RTVSPropertyOp62
 70
     1
  0
XRECORD
  5
20CBA
102
{ACAD_REACTORS
330
20CB9
102
}
330
20CB9
100
AcDbXrecord
280
     1
102
RTVSPost2010Prop28
280
     0
102
RTVSPost2010PropOp28
 70
     1
102
RTVSPost2010Prop29
280
     1
102
RTVSPost2010PropOp29
 70
     1
102
RTVSPost2010Prop30
280
     1
102
RTVSPost2010PropOp30
 70
     1
102
RTVSPost2010Prop31
280
     0
102
RTVSPost2010PropOp31
 70
     1
102
RTVSPost2010Prop32
280
     0
102
RTVSPost2010PropOp32
 70
     1
102
RTVSPost2010Prop33
280
     0
102
RTVSPost2010PropOp33
 70
     1
102
RTVSPost2010Prop34
280
     0
102
RTVSPost2010PropOp34
 70
     1
102
RTVSPost2010Prop35
280
     0
102
RTVSPost2010PropOp35
 70
     1
102
RTVSPost2010Prop36
280
     0
102
RTVSPost2010PropOp36
 70
     1
102
RTVSPost2010Prop37
 90
       50
102
RTVSPost2010PropOp37
 70
     1
102
RTVSPost2010Prop38
140
0.0
102
RTVSPost2010PropOp38
 70
     1
102
RTVSPost2010Prop39
140
1.0
102
RTVSPost2010PropOp39
 70
     1
102
RTVSPost2010Prop40
 90
        0
102
RTVSPost2010PropOp40
 70
     1
102
RTVSPost2010Prop41ColorIndex
 90
       18
102
RTVSPost2010Prop41ColorRGB
 90
        0
102
RTVSPost2010PropOp41
 70
     1
102
RTVSPost2010Prop42
 90
       50
102
RTVSPost2010PropOp42
 70
     1
102
RTVSPost2010Prop43
 90
        3
102
RTVSPost2010PropOp43
 70
     1
102
RTVSPost2010Prop44ColorIndex
 90
        5
102
RTVSPost2010Prop44ColorRGB
 90
      255
102
RTVSPost2010PropOp44
 70
     1
102
RTVSPost2010Prop45
280
     0
102
RTVSPost2010PropOp45
 70
     1
102
RTVSPost2010Prop46
 90
       50
102
RTVSPost2010PropOp46
 70
     1
102
RTVSPost2010Prop47
 90
       50
102
RTVSPost2010PropOp47
 70
     1
102
RTVSPost2010Prop48
 90
       50
102
RTVSPost2010PropOp48
 70
     1
102
RTVSPost2010Prop49
280
     0
102
RTVSPost2010PropOp49
 70
     1
102
RTVSPost2010Prop50
 90
       50
102
RTVSPost2010PropOp50
 70
     1
102
RTVSPost2010Prop51ColorIndex
 90
      256
102
RTVSPost2010Prop51ColorRGB
 90
-16777216
102
RTVSPost2010PropOp51
 70
     0
102
RTVSPost2010Prop52
140
1.0
102
RTVSPost2010PropOp52
 70
     0
102
RTVSPost2010Prop53
 90
        2
102
RTVSPost2010PropOp53
 70
     1
102
RTVSPost2010Prop54
  1
strokes_ogs.tif
102
RTVSPost2010PropOp54
 70
     1
102
RTVSPost2010Prop55
280
     0
102
RTVSPost2010PropOp55
 70
     1
102
RTVSPost2010Prop56
140
1.0
102
RTVSPost2010PropOp56
 70
     1
102
RTVSPost2010Prop57
140
1.0
102
RTVSPost2010PropOp57
 70
     1
102
RTVSPropertyOp0
 70
     1
102
RTVSPropertyOp1
 70
     1
102
RTVSPropertyOp2
 70
     1
102
RTVSPropertyOp3
 70
     1
102
RTVSPropertyOp4
 70
     1
102
RTVSPropertyOp5
 70
     1
102
RTVSPropertyOp6
 70
     1
102
RTVSPropertyOp7
 70
     1
102
RTVSPropertyOp8
 70
     1
102
RTVSPropertyOp9
 70
     1
102
RTVSPropertyOp10
 70
     1
102
RTVSPropertyOp11
 70
     1
102
RTVSPropertyOp12
 70
     1
102
RTVSPropertyOp13
 70
     1
102
RTVSPropertyOp14
 70
     1
102
RTVSPropertyOp15
 70
     1
102
RTVSPropertyOp16
 70
     1
102
RTVSPropertyOp17
 70
     1
102
RTVSPropertyOp18
 70
     1
102
RTVSPropertyOp19
 70
     1
102
RTVSPropertyOp20
 70
     1
102
RTVSPropertyOp21
 70
     1
102
RTVSPropertyOp22
 70
     1
102
RTVSPropertyOp23
 70
     1
102
RTVSPropertyOp24
 70
     1
102
RTVSPropertyOp25
 70
     1
102
RTVSPropertyOp26
 70
     1
102
RTVSPropertyOp27
 70
     1
102
RTVSPropertyOp28
 70
     1
102
RTVSPropertyOp29
 70
     1
102
RTVSPropertyOp30
 70
     1
102
RTVSPropertyOp31
 70
     1
102
RTVSPropertyOp32
 70
     1
102
RTVSPropertyOp33
 70
     1
102
RTVSPropertyOp34
 70
     1
102
RTVSPropertyOp35
 70
     1
102
RTVSPropertyOp36
 70
     1
102
RTVSPropertyOp37
 70
     1
102
RTVSPropertyOp38
 70
     1
102
RTVSPropertyOp39
 70
     1
102
RTVSPropertyOp40
 70
     1
102
RTVSPropertyOp41
 70
     1
102
RTVSPropertyOp42
 70
     1
102
RTVSPropertyOp43
 70
     1
102
RTVSPropertyOp44
 70
     1
102
RTVSPropertyOp45
 70
     1
102
RTVSPropertyOp46
 70
     1
102
RTVSPropertyOp47
 70
     1
102
RTVSPropertyOp48
 70
     1
102
RTVSPropertyOp49
 70
     1
102
RTVSPropertyOp50
 70
     1
102
RTVSPropertyOp51
 70
     0
102
RTVSPropertyOp52
 70
     0
102
RTVSPropertyOp53
 70
     1
102
RTVSPropertyOp54
 70
     1
102
RTVSPropertyOp55
 70
     1
102
RTVSPropertyOp56
 70
     1
102
RTVSPropertyOp57
 70
     1
102
RTVSPropertyOp58
 70
     1
102
RTVSPropertyOp59
 70
     1
102
RTVSPropertyOp60
 70
     1
102
RTVSPropertyOp61
 70
     1
102
RTVSPropertyOp62
 70
     1
  0
XRECORD
  5
20CB2
102
{ACAD_REACTORS
330
20CB1
102
}
330
20CB1
100
AcDbXrecord
280
     1
102
RTVSPost2010Prop28
280
     0
102
RTVSPost2010PropOp28
 70
     1
102
RTVSPost2010Prop29
280
     1
102
RTVSPost2010PropOp29
 70
     1
102
RTVSPost2010Prop30
280
     1
102
RTVSPost2010PropOp30
 70
     1
102
RTVSPost2010Prop31
280
     0
102
RTVSPost2010PropOp31
 70
     1
102
RTVSPost2010Prop32
280
     0
102
RTVSPost2010PropOp32
 70
     1
102
RTVSPost2010Prop33
280
     0
102
RTVSPost2010PropOp33
 70
     1
102
RTVSPost2010Prop34
280
     0
102
RTVSPost2010PropOp34
 70
     1
102
RTVSPost2010Prop35
280
     0
102
RTVSPost2010PropOp35
 70
     1
102
RTVSPost2010Prop36
280
     0
102
RTVSPost2010PropOp36
 70
     1
102
RTVSPost2010Prop37
 90
       50
102
RTVSPost2010PropOp37
 70
     1
102
RTVSPost2010Prop38
140
0.0
102
RTVSPost2010PropOp38
 70
     1
102
RTVSPost2010Prop39
140
1.0
102
RTVSPost2010PropOp39
 70
     1
102
RTVSPost2010Prop40
 90
        0
102
RTVSPost2010PropOp40
 70
     1
102
RTVSPost2010Prop41ColorIndex
 90
       18
102
RTVSPost2010Prop41ColorRGB
 90
        0
102
RTVSPost2010PropOp41
 70
     1
102
RTVSPost2010Prop42
 90
       50
102
RTVSPost2010PropOp42
 70
     1
102
RTVSPost2010Prop43
 90
        3
102
RTVSPost2010PropOp43
 70
     1
102
RTVSPost2010Prop44ColorIndex
 90
        5
102
RTVSPost2010Prop44ColorRGB
 90
      255
102
RTVSPost2010PropOp44
 70
     1
102
RTVSPost2010Prop45
280
     0
102
RTVSPost2010PropOp45
 70
     1
102
RTVSPost2010Prop46
 90
       50
102
RTVSPost2010PropOp46
 70
     1
102
RTVSPost2010Prop47
 90
       50
102
RTVSPost2010PropOp47
 70
     1
102
RTVSPost2010Prop48
 90
       50
102
RTVSPost2010PropOp48
 70
     1
102
RTVSPost2010Prop49
280
     0
102
RTVSPost2010PropOp49
 70
     1
102
RTVSPost2010Prop50
 90
       50
102
RTVSPost2010PropOp50
 70
     1
102
RTVSPost2010Prop51ColorIndex
 90
      256
102
RTVSPost2010Prop51ColorRGB
 90
-16777216
102
RTVSPost2010PropOp51
 70
     0
102
RTVSPost2010Prop52
140
1.0
102
RTVSPost2010PropOp52
 70
     0
102
RTVSPost2010Prop53
 90
        2
102
RTVSPost2010PropOp53
 70
     1
102
RTVSPost2010Prop54
  1
strokes_ogs.tif
102
RTVSPost2010PropOp54
 70
     1
102
RTVSPost2010Prop55
280
     0
102
RTVSPost2010PropOp55
 70
     1
102
RTVSPost2010Prop56
140
1.0
102
RTVSPost2010PropOp56
 70
     1
102
RTVSPost2010Prop57
140
1.0
102
RTVSPost2010PropOp57
 70
     1
102
RTVSPropertyOp0
 70
     0
102
RTVSPropertyOp1
 70
     0
102
RTVSPropertyOp2
 70
     0
102
RTVSPropertyOp3
 70
     0
102
RTVSPropertyOp4
 70
     0
102
RTVSPropertyOp5
 70
     0
102
RTVSPropertyOp6
 70
     0
102
RTVSPropertyOp7
 70
     0
102
RTVSPropertyOp8
 70
     0
102
RTVSPropertyOp9
 70
     0
102
RTVSPropertyOp10
 70
     0
102
RTVSPropertyOp11
 70
     0
102
RTVSPropertyOp12
 70
     0
102
RTVSPropertyOp13
 70
     0
102
RTVSPropertyOp14
 70
     2
102
RTVSPropertyOp15
 70
     0
102
RTVSPropertyOp16
 70
     0
102
RTVSPropertyOp17
 70
     0
102
RTVSPropertyOp18
 70
     0
102
RTVSPropertyOp19
 70
     0
102
RTVSPropertyOp20
 70
     0
102
RTVSPropertyOp21
 70
     0
102
RTVSPropertyOp22
 70
     0
102
RTVSPropertyOp23
 70
     0
102
RTVSPropertyOp24
 70
     0
102
RTVSPropertyOp25
 70
     0
102
RTVSPropertyOp26
 70
     0
102
RTVSPropertyOp27
 70
     0
102
RTVSPropertyOp28
 70
     1
102
RTVSPropertyOp29
 70
     1
102
RTVSPropertyOp30
 70
     1
102
RTVSPropertyOp31
 70
     1
102
RTVSPropertyOp32
 70
     1
102
RTVSPropertyOp33
 70
     1
102
RTVSPropertyOp34
 70
     1
102
RTVSPropertyOp35
 70
     1
102
RTVSPropertyOp36
 70
     1
102
RTVSPropertyOp37
 70
     1
102
RTVSPropertyOp38
 70
     1
102
RTVSPropertyOp39
 70
     1
102
RTVSPropertyOp40
 70
     1
102
RTVSPropertyOp41
 70
     1
102
RTVSPropertyOp42
 70
     1
102
RTVSPropertyOp43
 70
     1
102
RTVSPropertyOp44
 70
     1
102
RTVSPropertyOp45
 70
     1
102
RTVSPropertyOp46
 70
     1
102
RTVSPropertyOp47
 70
     1
102
RTVSPropertyOp48
 70
     1
102
RTVSPropertyOp49
 70
     1
102
RTVSPropertyOp50
 70
     1
102
RTVSPropertyOp51
 70
     0
102
RTVSPropertyOp52
 70
     0
102
RTVSPropertyOp53
 70
     1
102
RTVSPropertyOp54
 70
     1
102
RTVSPropertyOp55
 70
     1
102
RTVSPropertyOp56
 70
     1
102
RTVSPropertyOp57
 70
     1
102
RTVSPropertyOp58
 70
     1
102
RTVSPropertyOp59
 70
     1
102
RTVSPropertyOp60
 70
     1
102
RTVSPropertyOp61
 70
     1
102
RTVSPropertyOp62
 70
     1
  0
XRECORD
  5
20CA3
102
{ACAD_REACTORS
330
20CA2
102
}
330
20CA2
100
AcDbXrecord
280
     1
102
RTVSPost2010Prop28
280
     0
102
RTVSPost2010PropOp28
 70
     1
102
RTVSPost2010Prop29
280
     1
102
RTVSPost2010PropOp29
 70
     1
102
RTVSPost2010Prop30
280
     1
102
RTVSPost2010PropOp30
 70
     1
102
RTVSPost2010Prop31
280
     0
102
RTVSPost2010PropOp31
 70
     1
102
RTVSPost2010Prop32
280
     0
102
RTVSPost2010PropOp32
 70
     1
102
RTVSPost2010Prop33
280
     0
102
RTVSPost2010PropOp33
 70
     1
102
RTVSPost2010Prop34
280
     0
102
RTVSPost2010PropOp34
 70
     1
102
RTVSPost2010Prop35
280
     0
102
RTVSPost2010PropOp35
 70
     1
102
RTVSPost2010Prop36
280
     0
102
RTVSPost2010PropOp36
 70
     1
102
RTVSPost2010Prop37
 90
       50
102
RTVSPost2010PropOp37
 70
     1
102
RTVSPost2010Prop38
140
0.0
102
RTVSPost2010PropOp38
 70
     1
102
RTVSPost2010Prop39
140
1.0
102
RTVSPost2010PropOp39
 70
     1
102
RTVSPost2010Prop40
 90
        0
102
RTVSPost2010PropOp40
 70
     1
102
RTVSPost2010Prop41ColorIndex
 90
       18
102
RTVSPost2010Prop41ColorRGB
 90
        0
102
RTVSPost2010PropOp41
 70
     1
102
RTVSPost2010Prop42
 90
       50
102
RTVSPost2010PropOp42
 70
     1
102
RTVSPost2010Prop43
 90
        3
102
RTVSPost2010PropOp43
 70
     1
102
RTVSPost2010Prop44ColorIndex
 90
        5
102
RTVSPost2010Prop44ColorRGB
 90
      255
102
RTVSPost2010PropOp44
 70
     1
102
RTVSPost2010Prop45
280
     0
102
RTVSPost2010PropOp45
 70
     1
102
RTVSPost2010Prop46
 90
       50
102
RTVSPost2010PropOp46
 70
     1
102
RTVSPost2010Prop47
 90
       50
102
RTVSPost2010PropOp47
 70
     1
102
RTVSPost2010Prop48
 90
       50
102
RTVSPost2010PropOp48
 70
     1
102
RTVSPost2010Prop49
280
     0
102
RTVSPost2010PropOp49
 70
     1
102
RTVSPost2010Prop50
 90
       50
102
RTVSPost2010PropOp50
 70
     1
102
RTVSPost2010Prop51ColorIndex
 90
      256
102
RTVSPost2010Prop51ColorRGB
 90
-16777216
102
RTVSPost2010PropOp51
 70
     0
102
RTVSPost2010Prop52
140
1.0
102
RTVSPost2010PropOp52
 70
     0
102
RTVSPost2010Prop53
 90
        2
102
RTVSPost2010PropOp53
 70
     1
102
RTVSPost2010Prop54
  1
strokes_ogs.tif
102
RTVSPost2010PropOp54
 70
     1
102
RTVSPost2010Prop55
280
     0
102
RTVSPost2010PropOp55
 70
     1
102
RTVSPost2010Prop56
140
1.0
102
RTVSPost2010PropOp56
 70
     1
102
RTVSPost2010Prop57
140
1.0
102
RTVSPost2010PropOp57
 70
     1
102
RTVSPropertyOp0
 70
     1
102
RTVSPropertyOp1
 70
     1
102
RTVSPropertyOp2
 70
     1
102
RTVSPropertyOp3
 70
     1
102
RTVSPropertyOp4
 70
     1
102
RTVSPropertyOp5
 70
     1
102
RTVSPropertyOp6
 70
     1
102
RTVSPropertyOp7
 70
     1
102
RTVSPropertyOp8
 70
     1
102
RTVSPropertyOp9
 70
     1
102
RTVSPropertyOp10
 70
     1
102
RTVSPropertyOp11
 70
     1
102
RTVSPropertyOp12
 70
     1
102
RTVSPropertyOp13
 70
     1
102
RTVSPropertyOp14
 70
     1
102
RTVSPropertyOp15
 70
     1
102
RTVSPropertyOp16
 70
     1
102
RTVSPropertyOp17
 70
     1
102
RTVSPropertyOp18
 70
     1
102
RTVSPropertyOp19
 70
     1
102
RTVSPropertyOp20
 70
     1
102
RTVSPropertyOp21
 70
     1
102
RTVSPropertyOp22
 70
     1
102
RTVSPropertyOp23
 70
     1
102
RTVSPropertyOp24
 70
     1
102
RTVSPropertyOp25
 70
     1
102
RTVSPropertyOp26
 70
     1
102
RTVSPropertyOp27
 70
     1
102
RTVSPropertyOp28
 70
     1
102
RTVSPropertyOp29
 70
     1
102
RTVSPropertyOp30
 70
     1
102
RTVSPropertyOp31
 70
     1
102
RTVSPropertyOp32
 70
     1
102
RTVSPropertyOp33
 70
     1
102
RTVSPropertyOp34
 70
     1
102
RTVSPropertyOp35
 70
     1
102
RTVSPropertyOp36
 70
     1
102
RTVSPropertyOp37
 70
     1
102
RTVSPropertyOp38
 70
     1
102
RTVSPropertyOp39
 70
     1
102
RTVSPropertyOp40
 70
     1
102
RTVSPropertyOp41
 70
     1
102
RTVSPropertyOp42
 70
     1
102
RTVSPropertyOp43
 70
     1
102
RTVSPropertyOp44
 70
     1
102
RTVSPropertyOp45
 70
     1
102
RTVSPropertyOp46
 70
     1
102
RTVSPropertyOp47
 70
     1
102
RTVSPropertyOp48
 70
     1
102
RTVSPropertyOp49
 70
     1
102
RTVSPropertyOp50
 70
     1
102
RTVSPropertyOp51
 70
     0
102
RTVSPropertyOp52
 70
     0
102
RTVSPropertyOp53
 70
     1
102
RTVSPropertyOp54
 70
     1
102
RTVSPropertyOp55
 70
     1
102
RTVSPropertyOp56
 70
     1
102
RTVSPropertyOp57
 70
     1
102
RTVSPropertyOp58
 70
     1
102
RTVSPropertyOp59
 70
     1
102
RTVSPropertyOp60
 70
     1
102
RTVSPropertyOp61
 70
     1
102
RTVSPropertyOp62
 70
     1
  0
XRECORD
  5
20CB4
102
{ACAD_REACTORS
330
20CB3
102
}
330
20CB3
100
AcDbXrecord
280
     1
102
RTVSPost2010Prop28
280
     0
102
RTVSPost2010PropOp28
 70
     1
102
RTVSPost2010Prop29
280
     1
102
RTVSPost2010PropOp29
 70
     1
102
RTVSPost2010Prop30
280
     1
102
RTVSPost2010PropOp30
 70
     1
102
RTVSPost2010Prop31
280
     0
102
RTVSPost2010PropOp31
 70
     1
102
RTVSPost2010Prop32
280
     0
102
RTVSPost2010PropOp32
 70
     1
102
RTVSPost2010Prop33
280
     0
102
RTVSPost2010PropOp33
 70
     1
102
RTVSPost2010Prop34
280
     0
102
RTVSPost2010PropOp34
 70
     1
102
RTVSPost2010Prop35
280
     0
102
RTVSPost2010PropOp35
 70
     1
102
RTVSPost2010Prop36
280
     0
102
RTVSPost2010PropOp36
 70
     1
102
RTVSPost2010Prop37
 90
       50
102
RTVSPost2010PropOp37
 70
     1
102
RTVSPost2010Prop38
140
0.0
102
RTVSPost2010PropOp38
 70
     1
102
RTVSPost2010Prop39
140
1.0
102
RTVSPost2010PropOp39
 70
     1
102
RTVSPost2010Prop40
 90
        0
102
RTVSPost2010PropOp40
 70
     1
102
RTVSPost2010Prop41ColorIndex
 90
       18
102
RTVSPost2010Prop41ColorRGB
 90
        0
102
RTVSPost2010PropOp41
 70
     1
102
RTVSPost2010Prop42
 90
       50
102
RTVSPost2010PropOp42
 70
     1
102
RTVSPost2010Prop43
 90
        3
102
RTVSPost2010PropOp43
 70
     1
102
RTVSPost2010Prop44ColorIndex
 90
        5
102
RTVSPost2010Prop44ColorRGB
 90
      255
102
RTVSPost2010PropOp44
 70
     1
102
RTVSPost2010Prop45
280
     0
102
RTVSPost2010PropOp45
 70
     1
102
RTVSPost2010Prop46
 90
       50
102
RTVSPost2010PropOp46
 70
     1
102
RTVSPost2010Prop47
 90
       50
102
RTVSPost2010PropOp47
 70
     1
102
RTVSPost2010Prop48
 90
       50
102
RTVSPost2010PropOp48
 70
     1
102
RTVSPost2010Prop49
280
     0
102
RTVSPost2010PropOp49
 70
     1
102
RTVSPost2010Prop50
 90
       50
102
RTVSPost2010PropOp50
 70
     1
102
RTVSPost2010Prop51ColorIndex
 90
      256
102
RTVSPost2010Prop51ColorRGB
 90
-16777216
102
RTVSPost2010PropOp51
 70
     0
102
RTVSPost2010Prop52
140
1.0
102
RTVSPost2010PropOp52
 70
     0
102
RTVSPost2010Prop53
 90
        2
102
RTVSPost2010PropOp53
 70
     1
102
RTVSPost2010Prop54
  1
strokes_ogs.tif
102
RTVSPost2010PropOp54
 70
     1
102
RTVSPost2010Prop55
280
     0
102
RTVSPost2010PropOp55
 70
     1
102
RTVSPost2010Prop56
140
1.0
102
RTVSPost2010PropOp56
 70
     1
102
RTVSPost2010Prop57
140
1.0
102
RTVSPost2010PropOp57
 70
     1
102
RTVSPropertyOp0
 70
     0
102
RTVSPropertyOp1
 70
     0
102
RTVSPropertyOp2
 70
     0
102
RTVSPropertyOp3
 70
     0
102
RTVSPropertyOp4
 70
     0
102
RTVSPropertyOp5
 70
     0
102
RTVSPropertyOp6
 70
     0
102
RTVSPropertyOp7
 70
     0
102
RTVSPropertyOp8
 70
     0
102
RTVSPropertyOp9
 70
     0
102
RTVSPropertyOp10
 70
     0
102
RTVSPropertyOp11
 70
     0
102
RTVSPropertyOp12
 70
     0
102
RTVSPropertyOp13
 70
     0
102
RTVSPropertyOp14
 70
     2
102
RTVSPropertyOp15
 70
     0
102
RTVSPropertyOp16
 70
     0
102
RTVSPropertyOp17
 70
     0
102
RTVSPropertyOp18
 70
     0
102
RTVSPropertyOp19
 70
     0
102
RTVSPropertyOp20
 70
     0
102
RTVSPropertyOp21
 70
     0
102
RTVSPropertyOp22
 70
     0
102
RTVSPropertyOp23
 70
     0
102
RTVSPropertyOp24
 70
     0
102
RTVSPropertyOp25
 70
     0
102
RTVSPropertyOp26
 70
     0
102
RTVSPropertyOp27
 70
     0
102
RTVSPropertyOp28
 70
     1
102
RTVSPropertyOp29
 70
     1
102
RTVSPropertyOp30
 70
     1
102
RTVSPropertyOp31
 70
     1
102
RTVSPropertyOp32
 70
     1
102
RTVSPropertyOp33
 70
     1
102
RTVSPropertyOp34
 70
     1
102
RTVSPropertyOp35
 70
     1
102
RTVSPropertyOp36
 70
     1
102
RTVSPropertyOp37
 70
     1
102
RTVSPropertyOp38
 70
     1
102
RTVSPropertyOp39
 70
     1
102
RTVSPropertyOp40
 70
     1
102
RTVSPropertyOp41
 70
     1
102
RTVSPropertyOp42
 70
     1
102
RTVSPropertyOp43
 70
     1
102
RTVSPropertyOp44
 70
     1
102
RTVSPropertyOp45
 70
     1
102
RTVSPropertyOp46
 70
     1
102
RTVSPropertyOp47
 70
     1
102
RTVSPropertyOp48
 70
     1
102
RTVSPropertyOp49
 70
     1
102
RTVSPropertyOp50
 70
     1
102
RTVSPropertyOp51
 70
     0
102
RTVSPropertyOp52
 70
     0
102
RTVSPropertyOp53
 70
     1
102
RTVSPropertyOp54
 70
     1
102
RTVSPropertyOp55
 70
     1
102
RTVSPropertyOp56
 70
     1
102
RTVSPropertyOp57
 70
     1
102
RTVSPropertyOp58
 70
     1
102
RTVSPropertyOp59
 70
     1
102
RTVSPropertyOp60
 70
     1
102
RTVSPropertyOp61
 70
     1
102
RTVSPropertyOp62
 70
     1
  0
XRECORD
  5
20CB0
102
{ACAD_REACTORS
330
20CAF
102
}
330
20CAF
100
AcDbXrecord
280
     1
102
RTVSPost2010Prop28
280
     0
102
RTVSPost2010PropOp28
 70
     1
102
RTVSPost2010Prop29
280
     1
102
RTVSPost2010PropOp29
 70
     1
102
RTVSPost2010Prop30
280
     1
102
RTVSPost2010PropOp30
 70
     1
102
RTVSPost2010Prop31
280
     0
102
RTVSPost2010PropOp31
 70
     1
102
RTVSPost2010Prop32
280
     0
102
RTVSPost2010PropOp32
 70
     1
102
RTVSPost2010Prop33
280
     0
102
RTVSPost2010PropOp33
 70
     1
102
RTVSPost2010Prop34
280
     0
102
RTVSPost2010PropOp34
 70
     1
102
RTVSPost2010Prop35
280
     0
102
RTVSPost2010PropOp35
 70
     1
102
RTVSPost2010Prop36
280
     0
102
RTVSPost2010PropOp36
 70
     1
102
RTVSPost2010Prop37
 90
       50
102
RTVSPost2010PropOp37
 70
     1
102
RTVSPost2010Prop38
140
0.0
102
RTVSPost2010PropOp38
 70
     1
102
RTVSPost2010Prop39
140
1.0
102
RTVSPost2010PropOp39
 70
     1
102
RTVSPost2010Prop40
 90
        0
102
RTVSPost2010PropOp40
 70
     1
102
RTVSPost2010Prop41ColorIndex
 90
       18
102
RTVSPost2010Prop41ColorRGB
 90
        0
102
RTVSPost2010PropOp41
 70
     1
102
RTVSPost2010Prop42
 90
       50
102
RTVSPost2010PropOp42
 70
     1
102
RTVSPost2010Prop43
 90
        3
102
RTVSPost2010PropOp43
 70
     1
102
RTVSPost2010Prop44ColorIndex
 90
        5
102
RTVSPost2010Prop44ColorRGB
 90
      255
102
RTVSPost2010PropOp44
 70
     1
102
RTVSPost2010Prop45
280
     0
102
RTVSPost2010PropOp45
 70
     1
102
RTVSPost2010Prop46
 90
       50
102
RTVSPost2010PropOp46
 70
     1
102
RTVSPost2010Prop47
 90
       50
102
RTVSPost2010PropOp47
 70
     1
102
RTVSPost2010Prop48
 90
       50
102
RTVSPost2010PropOp48
 70
     1
102
RTVSPost2010Prop49
280
     0
102
RTVSPost2010PropOp49
 70
     1
102
RTVSPost2010Prop50
 90
       50
102
RTVSPost2010PropOp50
 70
     1
102
RTVSPost2010Prop51ColorIndex
 90
      256
102
RTVSPost2010Prop51ColorRGB
 90
-16777216
102
RTVSPost2010PropOp51
 70
     0
102
RTVSPost2010Prop52
140
1.0
102
RTVSPost2010PropOp52
 70
     0
102
RTVSPost2010Prop53
 90
        2
102
RTVSPost2010PropOp53
 70
     1
102
RTVSPost2010Prop54
  1
strokes_ogs.tif
102
RTVSPost2010PropOp54
 70
     1
102
RTVSPost2010Prop55
280
     0
102
RTVSPost2010PropOp55
 70
     1
102
RTVSPost2010Prop56
140
1.0
102
RTVSPost2010PropOp56
 70
     1
102
RTVSPost2010Prop57
140
1.0
102
RTVSPost2010PropOp57
 70
     1
102
RTVSPropertyOp0
 70
     1
102
RTVSPropertyOp1
 70
     1
102
RTVSPropertyOp2
 70
     1
102
RTVSPropertyOp3
 70
     1
102
RTVSPropertyOp4
 70
     1
102
RTVSPropertyOp5
 70
     1
102
RTVSPropertyOp6
 70
     1
102
RTVSPropertyOp7
 70
     1
102
RTVSPropertyOp8
 70
     1
102
RTVSPropertyOp9
 70
     1
102
RTVSPropertyOp10
 70
     1
102
RTVSPropertyOp11
 70
     1
102
RTVSPropertyOp12
 70
     1
102
RTVSPropertyOp13
 70
     1
102
RTVSPropertyOp14
 70
     1
102
RTVSPropertyOp15
 70
     1
102
RTVSPropertyOp16
 70
     1
102
RTVSPropertyOp17
 70
     1
102
RTVSPropertyOp18
 70
     1
102
RTVSPropertyOp19
 70
     1
102
RTVSPropertyOp20
 70
     1
102
RTVSPropertyOp21
 70
     1
102
RTVSPropertyOp22
 70
     1
102
RTVSPropertyOp23
 70
     1
102
RTVSPropertyOp24
 70
     1
102
RTVSPropertyOp25
 70
     1
102
RTVSPropertyOp26
 70
     1
102
RTVSPropertyOp27
 70
     1
102
RTVSPropertyOp28
 70
     1
102
RTVSPropertyOp29
 70
     1
102
RTVSPropertyOp30
 70
     1
102
RTVSPropertyOp31
 70
     1
102
RTVSPropertyOp32
 70
     1
102
RTVSPropertyOp33
 70
     1
102
RTVSPropertyOp34
 70
     1
102
RTVSPropertyOp35
 70
     1
102
RTVSPropertyOp36
 70
     1
102
RTVSPropertyOp37
 70
     1
102
RTVSPropertyOp38
 70
     1
102
RTVSPropertyOp39
 70
     1
102
RTVSPropertyOp40
 70
     1
102
RTVSPropertyOp41
 70
     1
102
RTVSPropertyOp42
 70
     1
102
RTVSPropertyOp43
 70
     1
102
RTVSPropertyOp44
 70
     1
102
RTVSPropertyOp45
 70
     1
102
RTVSPropertyOp46
 70
     1
102
RTVSPropertyOp47
 70
     1
102
RTVSPropertyOp48
 70
     1
102
RTVSPropertyOp49
 70
     1
102
RTVSPropertyOp50
 70
     1
102
RTVSPropertyOp51
 70
     0
102
RTVSPropertyOp52
 70
     0
102
RTVSPropertyOp53
 70
     1
102
RTVSPropertyOp54
 70
     1
102
RTVSPropertyOp55
 70
     1
102
RTVSPropertyOp56
 70
     1
102
RTVSPropertyOp57
 70
     1
102
RTVSPropertyOp58
 70
     1
102
RTVSPropertyOp59
 70
     1
102
RTVSPropertyOp60
 70
     1
102
RTVSPropertyOp61
 70
     1
102
RTVSPropertyOp62
 70
     1
  0
XRECORD
  5
20CC4
102
{ACAD_REACTORS
330
20CC3
102
}
330
20CC3
100
AcDbXrecord
280
     1
102
RTVSPost2010Prop28
280
     0
102
RTVSPost2010PropOp28
 70
     1
102
RTVSPost2010Prop29
280
     1
102
RTVSPost2010PropOp29
 70
     1
102
RTVSPost2010Prop30
280
     1
102
RTVSPost2010PropOp30
 70
     1
102
RTVSPost2010Prop31
280
     0
102
RTVSPost2010PropOp31
 70
     1
102
RTVSPost2010Prop32
280
     0
102
RTVSPost2010PropOp32
 70
     1
102
RTVSPost2010Prop33
280
     0
102
RTVSPost2010PropOp33
 70
     1
102
RTVSPost2010Prop34
280
     0
102
RTVSPost2010PropOp34
 70
     1
102
RTVSPost2010Prop35
280
     0
102
RTVSPost2010PropOp35
 70
     1
102
RTVSPost2010Prop36
280
     0
102
RTVSPost2010PropOp36
 70
     1
102
RTVSPost2010Prop37
 90
       50
102
RTVSPost2010PropOp37
 70
     1
102
RTVSPost2010Prop38
140
0.0
102
RTVSPost2010PropOp38
 70
     1
102
RTVSPost2010Prop39
140
1.0
102
RTVSPost2010PropOp39
 70
     1
102
RTVSPost2010Prop40
 90
        0
102
RTVSPost2010PropOp40
 70
     1
102
RTVSPost2010Prop41ColorIndex
 90
       18
102
RTVSPost2010Prop41ColorRGB
 90
        0
102
RTVSPost2010PropOp41
 70
     1
102
RTVSPost2010Prop42
 90
       50
102
RTVSPost2010PropOp42
 70
     1
102
RTVSPost2010Prop43
 90
        3
102
RTVSPost2010PropOp43
 70
     1
102
RTVSPost2010Prop44ColorIndex
 90
        5
102
RTVSPost2010Prop44ColorRGB
 90
      255
102
RTVSPost2010PropOp44
 70
     1
102
RTVSPost2010Prop45
280
     0
102
RTVSPost2010PropOp45
 70
     1
102
RTVSPost2010Prop46
 90
       50
102
RTVSPost2010PropOp46
 70
     1
102
RTVSPost2010Prop47
 90
       50
102
RTVSPost2010PropOp47
 70
     1
102
RTVSPost2010Prop48
 90
       50
102
RTVSPost2010PropOp48
 70
     1
102
RTVSPost2010Prop49
280
     0
102
RTVSPost2010PropOp49
 70
     1
102
RTVSPost2010Prop50
 90
       50
102
RTVSPost2010PropOp50
 70
     1
102
RTVSPost2010Prop51ColorIndex
 90
      256
102
RTVSPost2010Prop51ColorRGB
 90
-16777216
102
RTVSPost2010PropOp51
 70
     0
102
RTVSPost2010Prop52
140
1.0
102
RTVSPost2010PropOp52
 70
     0
102
RTVSPost2010Prop53
 90
        2
102
RTVSPost2010PropOp53
 70
     1
102
RTVSPost2010Prop54
  1
strokes_ogs.tif
102
RTVSPost2010PropOp54
 70
     1
102
RTVSPost2010Prop55
280
     0
102
RTVSPost2010PropOp55
 70
     1
102
RTVSPost2010Prop56
140
1.0
102
RTVSPost2010PropOp56
 70
     1
102
RTVSPost2010Prop57
140
1.0
102
RTVSPost2010PropOp57
 70
     1
102
RTVSPropertyOp0
 70
     1
102
RTVSPropertyOp1
 70
     1
102
RTVSPropertyOp2
 70
     1
102
RTVSPropertyOp3
 70
     1
102
RTVSPropertyOp4
 70
     1
102
RTVSPropertyOp5
 70
     1
102
RTVSPropertyOp6
 70
     1
102
RTVSPropertyOp7
 70
     1
102
RTVSPropertyOp8
 70
     1
102
RTVSPropertyOp9
 70
     1
102
RTVSPropertyOp10
 70
     1
102
RTVSPropertyOp11
 70
     1
102
RTVSPropertyOp12
 70
     1
102
RTVSPropertyOp13
 70
     1
102
RTVSPropertyOp14
 70
     1
102
RTVSPropertyOp15
 70
     1
102
RTVSPropertyOp16
 70
     1
102
RTVSPropertyOp17
 70
     1
102
RTVSPropertyOp18
 70
     1
102
RTVSPropertyOp19
 70
     1
102
RTVSPropertyOp20
 70
     1
102
RTVSPropertyOp21
 70
     1
102
RTVSPropertyOp22
 70
     1
102
RTVSPropertyOp23
 70
     1
102
RTVSPropertyOp24
 70
     1
102
RTVSPropertyOp25
 70
     1
102
RTVSPropertyOp26
 70
     1
102
RTVSPropertyOp27
 70
     1
102
RTVSPropertyOp28
 70
     1
102
RTVSPropertyOp29
 70
     1
102
RTVSPropertyOp30
 70
     1
102
RTVSPropertyOp31
 70
     1
102
RTVSPropertyOp32
 70
     1
102
RTVSPropertyOp33
 70
     1
102
RTVSPropertyOp34
 70
     1
102
RTVSPropertyOp35
 70
     1
102
RTVSPropertyOp36
 70
     1
102
RTVSPropertyOp37
 70
     1
102
RTVSPropertyOp38
 70
     1
102
RTVSPropertyOp39
 70
     1
102
RTVSPropertyOp40
 70
     1
102
RTVSPropertyOp41
 70
     1
102
RTVSPropertyOp42
 70
     1
102
RTVSPropertyOp43
 70
     1
102
RTVSPropertyOp44
 70
     1
102
RTVSPropertyOp45
 70
     1
102
RTVSPropertyOp46
 70
     1
102
RTVSPropertyOp47
 70
     1
102
RTVSPropertyOp48
 70
     1
102
RTVSPropertyOp49
 70
     1
102
RTVSPropertyOp50
 70
     1
102
RTVSPropertyOp51
 70
     0
102
RTVSPropertyOp52
 70
     0
102
RTVSPropertyOp53
 70
     1
102
RTVSPropertyOp54
 70
     1
102
RTVSPropertyOp55
 70
     1
102
RTVSPropertyOp56
 70
     1
102
RTVSPropertyOp57
 70
     1
102
RTVSPropertyOp58
 70
     1
102
RTVSPropertyOp59
 70
     1
102
RTVSPropertyOp60
 70
     1
102
RTVSPropertyOp61
 70
     1
102
RTVSPropertyOp62
 70
     1
  0
XRECORD
  5
20CC2
102
{ACAD_REACTORS
330
20CC1
102
}
330
20CC1
100
AcDbXrecord
280
     1
102
RTVSPost2010Prop28
280
     0
102
RTVSPost2010PropOp28
 70
     1
102
RTVSPost2010Prop29
280
     1
102
RTVSPost2010PropOp29
 70
     1
102
RTVSPost2010Prop30
280
     1
102
RTVSPost2010PropOp30
 70
     1
102
RTVSPost2010Prop31
280
     0
102
RTVSPost2010PropOp31
 70
     1
102
RTVSPost2010Prop32
280
     0
102
RTVSPost2010PropOp32
 70
     1
102
RTVSPost2010Prop33
280
     0
102
RTVSPost2010PropOp33
 70
     1
102
RTVSPost2010Prop34
280
     0
102
RTVSPost2010PropOp34
 70
     1
102
RTVSPost2010Prop35
280
     0
102
RTVSPost2010PropOp35
 70
     1
102
RTVSPost2010Prop36
280
     0
102
RTVSPost2010PropOp36
 70
     1
102
RTVSPost2010Prop37
 90
       50
102
RTVSPost2010PropOp37
 70
     1
102
RTVSPost2010Prop38
140
0.0
102
RTVSPost2010PropOp38
 70
     1
102
RTVSPost2010Prop39
140
1.0
102
RTVSPost2010PropOp39
 70
     1
102
RTVSPost2010Prop40
 90
        0
102
RTVSPost2010PropOp40
 70
     1
102
RTVSPost2010Prop41ColorIndex
 90
       18
102
RTVSPost2010Prop41ColorRGB
 90
        0
102
RTVSPost2010PropOp41
 70
     1
102
RTVSPost2010Prop42
 90
       50
102
RTVSPost2010PropOp42
 70
     1
102
RTVSPost2010Prop43
 90
        3
102
RTVSPost2010PropOp43
 70
     1
102
RTVSPost2010Prop44ColorIndex
 90
        5
102
RTVSPost2010Prop44ColorRGB
 90
      255
102
RTVSPost2010PropOp44
 70
     1
102
RTVSPost2010Prop45
280
     0
102
RTVSPost2010PropOp45
 70
     1
102
RTVSPost2010Prop46
 90
       50
102
RTVSPost2010PropOp46
 70
     1
102
RTVSPost2010Prop47
 90
       50
102
RTVSPost2010PropOp47
 70
     1
102
RTVSPost2010Prop48
 90
       50
102
RTVSPost2010PropOp48
 70
     1
102
RTVSPost2010Prop49
280
     0
102
RTVSPost2010PropOp49
 70
     1
102
RTVSPost2010Prop50
 90
       50
102
RTVSPost2010PropOp50
 70
     1
102
RTVSPost2010Prop51ColorIndex
 90
      256
102
RTVSPost2010Prop51ColorRGB
 90
-16777216
102
RTVSPost2010PropOp51
 70
     0
102
RTVSPost2010Prop52
140
1.0
102
RTVSPost2010PropOp52
 70
     0
102
RTVSPost2010Prop53
 90
        2
102
RTVSPost2010PropOp53
 70
     1
102
RTVSPost2010Prop54
  1
strokes_ogs.tif
102
RTVSPost2010PropOp54
 70
     1
102
RTVSPost2010Prop55
280
     0
102
RTVSPost2010PropOp55
 70
     1
102
RTVSPost2010Prop56
140
1.0
102
RTVSPost2010PropOp56
 70
     1
102
RTVSPost2010Prop57
140
1.0
102
RTVSPost2010PropOp57
 70
     1
102
RTVSPropertyOp0
 70
     1
102
RTVSPropertyOp1
 70
     1
102
RTVSPropertyOp2
 70
     1
102
RTVSPropertyOp3
 70
     1
102
RTVSPropertyOp4
 70
     1
102
RTVSPropertyOp5
 70
     1
102
RTVSPropertyOp6
 70
     1
102
RTVSPropertyOp7
 70
     1
102
RTVSPropertyOp8
 70
     1
102
RTVSPropertyOp9
 70
     1
102
RTVSPropertyOp10
 70
     1
102
RTVSPropertyOp11
 70
     1
102
RTVSPropertyOp12
 70
     1
102
RTVSPropertyOp13
 70
     1
102
RTVSPropertyOp14
 70
     1
102
RTVSPropertyOp15
 70
     1
102
RTVSPropertyOp16
 70
     1
102
RTVSPropertyOp17
 70
     1
102
RTVSPropertyOp18
 70
     1
102
RTVSPropertyOp19
 70
     1
102
RTVSPropertyOp20
 70
     1
102
RTVSPropertyOp21
 70
     1
102
RTVSPropertyOp22
 70
     1
102
RTVSPropertyOp23
 70
     1
102
RTVSPropertyOp24
 70
     1
102
RTVSPropertyOp25
 70
     1
102
RTVSPropertyOp26
 70
     1
102
RTVSPropertyOp27
 70
     1
102
RTVSPropertyOp28
 70
     1
102
RTVSPropertyOp29
 70
     1
102
RTVSPropertyOp30
 70
     1
102
RTVSPropertyOp31
 70
     1
102
RTVSPropertyOp32
 70
     1
102
RTVSPropertyOp33
 70
     1
102
RTVSPropertyOp34
 70
     1
102
RTVSPropertyOp35
 70
     1
102
RTVSPropertyOp36
 70
     1
102
RTVSPropertyOp37
 70
     1
102
RTVSPropertyOp38
 70
     1
102
RTVSPropertyOp39
 70
     1
102
RTVSPropertyOp40
 70
     1
102
RTVSPropertyOp41
 70
     1
102
RTVSPropertyOp42
 70
     1
102
RTVSPropertyOp43
 70
     1
102
RTVSPropertyOp44
 70
     1
102
RTVSPropertyOp45
 70
     1
102
RTVSPropertyOp46
 70
     1
102
RTVSPropertyOp47
 70
     1
102
RTVSPropertyOp48
 70
     1
102
RTVSPropertyOp49
 70
     1
102
RTVSPropertyOp50
 70
     1
102
RTVSPropertyOp51
 70
     0
102
RTVSPropertyOp52
 70
     0
102
RTVSPropertyOp53
 70
     1
102
RTVSPropertyOp54
 70
     1
102
RTVSPropertyOp55
 70
     1
102
RTVSPropertyOp56
 70
     1
102
RTVSPropertyOp57
 70
     1
102
RTVSPropertyOp58
 70
     1
102
RTVSPropertyOp59
 70
     1
102
RTVSPropertyOp60
 70
     1
102
RTVSPropertyOp61
 70
     1
102
RTVSPropertyOp62
 70
     1
  0
XRECORD
  5
20CBC
102
{ACAD_REACTORS
330
20CBB
102
}
330
20CBB
100
AcDbXrecord
280
     1
102
RTVSPost2010Prop28
280
     0
102
RTVSPost2010PropOp28
 70
     1
102
RTVSPost2010Prop29
280
     1
102
RTVSPost2010PropOp29
 70
     1
102
RTVSPost2010Prop30
280
     1
102
RTVSPost2010PropOp30
 70
     1
102
RTVSPost2010Prop31
280
     0
102
RTVSPost2010PropOp31
 70
     1
102
RTVSPost2010Prop32
280
     0
102
RTVSPost2010PropOp32
 70
     1
102
RTVSPost2010Prop33
280
     0
102
RTVSPost2010PropOp33
 70
     1
102
RTVSPost2010Prop34
280
     0
102
RTVSPost2010PropOp34
 70
     1
102
RTVSPost2010Prop35
280
     0
102
RTVSPost2010PropOp35
 70
     1
102
RTVSPost2010Prop36
280
     0
102
RTVSPost2010PropOp36
 70
     1
102
RTVSPost2010Prop37
 90
       50
102
RTVSPost2010PropOp37
 70
     1
102
RTVSPost2010Prop38
140
0.0
102
RTVSPost2010PropOp38
 70
     1
102
RTVSPost2010Prop39
140
1.0
102
RTVSPost2010PropOp39
 70
     1
102
RTVSPost2010Prop40
 90
        0
102
RTVSPost2010PropOp40
 70
     1
102
RTVSPost2010Prop41ColorIndex
 90
       18
102
RTVSPost2010Prop41ColorRGB
 90
        0
102
RTVSPost2010PropOp41
 70
     1
102
RTVSPost2010Prop42
 90
       50
102
RTVSPost2010PropOp42
 70
     1
102
RTVSPost2010Prop43
 90
        3
102
RTVSPost2010PropOp43
 70
     1
102
RTVSPost2010Prop44ColorIndex
 90
        5
102
RTVSPost2010Prop44ColorRGB
 90
      255
102
RTVSPost2010PropOp44
 70
     1
102
RTVSPost2010Prop45
280
     0
102
RTVSPost2010PropOp45
 70
     1
102
RTVSPost2010Prop46
 90
       50
102
RTVSPost2010PropOp46
 70
     1
102
RTVSPost2010Prop47
 90
       50
102
RTVSPost2010PropOp47
 70
     1
102
RTVSPost2010Prop48
 90
       50
102
RTVSPost2010PropOp48
 70
     1
102
RTVSPost2010Prop49
280
     0
102
RTVSPost2010PropOp49
 70
     1
102
RTVSPost2010Prop50
 90
       50
102
RTVSPost2010PropOp50
 70
     1
102
RTVSPost2010Prop51ColorIndex
 90
      256
102
RTVSPost2010Prop51ColorRGB
 90
-16777216
102
RTVSPost2010PropOp51
 70
     0
102
RTVSPost2010Prop52
140
1.0
102
RTVSPost2010PropOp52
 70
     0
102
RTVSPost2010Prop53
 90
        2
102
RTVSPost2010PropOp53
 70
     1
102
RTVSPost2010Prop54
  1
strokes_ogs.tif
102
RTVSPost2010PropOp54
 70
     1
102
RTVSPost2010Prop55
280
     0
102
RTVSPost2010PropOp55
 70
     1
102
RTVSPost2010Prop56
140
1.0
102
RTVSPost2010PropOp56
 70
     1
102
RTVSPost2010Prop57
140
1.0
102
RTVSPost2010PropOp57
 70
     1
102
RTVSPropertyOp0
 70
     1
102
RTVSPropertyOp1
 70
     1
102
RTVSPropertyOp2
 70
     1
102
RTVSPropertyOp3
 70
     1
102
RTVSPropertyOp4
 70
     1
102
RTVSPropertyOp5
 70
     1
102
RTVSPropertyOp6
 70
     1
102
RTVSPropertyOp7
 70
     1
102
RTVSPropertyOp8
 70
     1
102
RTVSPropertyOp9
 70
     1
102
RTVSPropertyOp10
 70
     1
102
RTVSPropertyOp11
 70
     1
102
RTVSPropertyOp12
 70
     1
102
RTVSPropertyOp13
 70
     1
102
RTVSPropertyOp14
 70
     1
102
RTVSPropertyOp15
 70
     1
102
RTVSPropertyOp16
 70
     1
102
RTVSPropertyOp17
 70
     1
102
RTVSPropertyOp18
 70
     1
102
RTVSPropertyOp19
 70
     1
102
RTVSPropertyOp20
 70
     1
102
RTVSPropertyOp21
 70
     1
102
RTVSPropertyOp22
 70
     1
102
RTVSPropertyOp23
 70
     1
102
RTVSPropertyOp24
 70
     1
102
RTVSPropertyOp25
 70
     1
102
RTVSPropertyOp26
 70
     1
102
RTVSPropertyOp27
 70
     1
102
RTVSPropertyOp28
 70
     1
102
RTVSPropertyOp29
 70
     1
102
RTVSPropertyOp30
 70
     1
102
RTVSPropertyOp31
 70
     1
102
RTVSPropertyOp32
 70
     1
102
RTVSPropertyOp33
 70
     1
102
RTVSPropertyOp34
 70
     1
102
RTVSPropertyOp35
 70
     1
102
RTVSPropertyOp36
 70
     1
102
RTVSPropertyOp37
 70
     1
102
RTVSPropertyOp38
 70
     1
102
RTVSPropertyOp39
 70
     1
102
RTVSPropertyOp40
 70
     1
102
RTVSPropertyOp41
 70
     1
102
RTVSPropertyOp42
 70
     1
102
RTVSPropertyOp43
 70
     1
102
RTVSPropertyOp44
 70
     1
102
RTVSPropertyOp45
 70
     1
102
RTVSPropertyOp46
 70
     1
102
RTVSPropertyOp47
 70
     1
102
RTVSPropertyOp48
 70
     1
102
RTVSPropertyOp49
 70
     1
102
RTVSPropertyOp50
 70
     1
102
RTVSPropertyOp51
 70
     0
102
RTVSPropertyOp52
 70
     0
102
RTVSPropertyOp53
 70
     1
102
RTVSPropertyOp54
 70
     1
102
RTVSPropertyOp55
 70
     1
102
RTVSPropertyOp56
 70
     1
102
RTVSPropertyOp57
 70
     1
102
RTVSPropertyOp58
 70
     1
102
RTVSPropertyOp59
 70
     1
102
RTVSPropertyOp60
 70
     1
102
RTVSPropertyOp61
 70
     1
102
RTVSPropertyOp62
 70
     1
  0
XRECORD
  5
20CBE
102
{ACAD_REACTORS
330
20CBD
102
}
330
20CBD
100
AcDbXrecord
280
     1
102
RTVSPost2010Prop28
280
     0
102
RTVSPost2010PropOp28
 70
     1
102
RTVSPost2010Prop29
280
     1
102
RTVSPost2010PropOp29
 70
     1
102
RTVSPost2010Prop30
280
     1
102
RTVSPost2010PropOp30
 70
     1
102
RTVSPost2010Prop31
280
     0
102
RTVSPost2010PropOp31
 70
     1
102
RTVSPost2010Prop32
280
     0
102
RTVSPost2010PropOp32
 70
     1
102
RTVSPost2010Prop33
280
     0
102
RTVSPost2010PropOp33
 70
     1
102
RTVSPost2010Prop34
280
     0
102
RTVSPost2010PropOp34
 70
     1
102
RTVSPost2010Prop35
280
     0
102
RTVSPost2010PropOp35
 70
     1
102
RTVSPost2010Prop36
280
     0
102
RTVSPost2010PropOp36
 70
     1
102
RTVSPost2010Prop37
 90
       50
102
RTVSPost2010PropOp37
 70
     1
102
RTVSPost2010Prop38
140
0.0
102
RTVSPost2010PropOp38
 70
     1
102
RTVSPost2010Prop39
140
1.0
102
RTVSPost2010PropOp39
 70
     1
102
RTVSPost2010Prop40
 90
        0
102
RTVSPost2010PropOp40
 70
     1
102
RTVSPost2010Prop41ColorIndex
 90
       18
102
RTVSPost2010Prop41ColorRGB
 90
        0
102
RTVSPost2010PropOp41
 70
     1
102
RTVSPost2010Prop42
 90
       50
102
RTVSPost2010PropOp42
 70
     1
102
RTVSPost2010Prop43
 90
        3
102
RTVSPost2010PropOp43
 70
     1
102
RTVSPost2010Prop44ColorIndex
 90
        5
102
RTVSPost2010Prop44ColorRGB
 90
      255
102
RTVSPost2010PropOp44
 70
     1
102
RTVSPost2010Prop45
280
     0
102
RTVSPost2010PropOp45
 70
     1
102
RTVSPost2010Prop46
 90
       50
102
RTVSPost2010PropOp46
 70
     1
102
RTVSPost2010Prop47
 90
       50
102
RTVSPost2010PropOp47
 70
     1
102
RTVSPost2010Prop48
 90
       50
102
RTVSPost2010PropOp48
 70
     1
102
RTVSPost2010Prop49
280
     0
102
RTVSPost2010PropOp49
 70
     1
102
RTVSPost2010Prop50
 90
       50
102
RTVSPost2010PropOp50
 70
     1
102
RTVSPost2010Prop51ColorIndex
 90
      256
102
RTVSPost2010Prop51ColorRGB
 90
-16777216
102
RTVSPost2010PropOp51
 70
     0
102
RTVSPost2010Prop52
140
1.0
102
RTVSPost2010PropOp52
 70
     0
102
RTVSPost2010Prop53
 90
        2
102
RTVSPost2010PropOp53
 70
     1
102
RTVSPost2010Prop54
  1
strokes_ogs.tif
102
RTVSPost2010PropOp54
 70
     1
102
RTVSPost2010Prop55
280
     0
102
RTVSPost2010PropOp55
 70
     1
102
RTVSPost2010Prop56
140
1.0
102
RTVSPost2010PropOp56
 70
     1
102
RTVSPost2010Prop57
140
1.0
102
RTVSPost2010PropOp57
 70
     1
102
RTVSPropertyOp0
 70
     1
102
RTVSPropertyOp1
 70
     1
102
RTVSPropertyOp2
 70
     1
102
RTVSPropertyOp3
 70
     1
102
RTVSPropertyOp4
 70
     1
102
RTVSPropertyOp5
 70
     1
102
RTVSPropertyOp6
 70
     1
102
RTVSPropertyOp7
 70
     1
102
RTVSPropertyOp8
 70
     1
102
RTVSPropertyOp9
 70
     1
102
RTVSPropertyOp10
 70
     1
102
RTVSPropertyOp11
 70
     1
102
RTVSPropertyOp12
 70
     1
102
RTVSPropertyOp13
 70
     1
102
RTVSPropertyOp14
 70
     1
102
RTVSPropertyOp15
 70
     1
102
RTVSPropertyOp16
 70
     1
102
RTVSPropertyOp17
 70
     1
102
RTVSPropertyOp18
 70
     1
102
RTVSPropertyOp19
 70
     1
102
RTVSPropertyOp20
 70
     1
102
RTVSPropertyOp21
 70
     1
102
RTVSPropertyOp22
 70
     1
102
RTVSPropertyOp23
 70
     1
102
RTVSPropertyOp24
 70
     1
102
RTVSPropertyOp25
 70
     1
102
RTVSPropertyOp26
 70
     1
102
RTVSPropertyOp27
 70
     1
102
RTVSPropertyOp28
 70
     1
102
RTVSPropertyOp29
 70
     1
102
RTVSPropertyOp30
 70
     1
102
RTVSPropertyOp31
 70
     1
102
RTVSPropertyOp32
 70
     1
102
RTVSPropertyOp33
 70
     1
102
RTVSPropertyOp34
 70
     1
102
RTVSPropertyOp35
 70
     1
102
RTVSPropertyOp36
 70
     1
102
RTVSPropertyOp37
 70
     1
102
RTVSPropertyOp38
 70
     1
102
RTVSPropertyOp39
 70
     1
102
RTVSPropertyOp40
 70
     1
102
RTVSPropertyOp41
 70
     1
102
RTVSPropertyOp42
 70
     1
102
RTVSPropertyOp43
 70
     1
102
RTVSPropertyOp44
 70
     1
102
RTVSPropertyOp45
 70
     1
102
RTVSPropertyOp46
 70
     1
102
RTVSPropertyOp47
 70
     1
102
RTVSPropertyOp48
 70
     1
102
RTVSPropertyOp49
 70
     1
102
RTVSPropertyOp50
 70
     1
102
RTVSPropertyOp51
 70
     0
102
RTVSPropertyOp52
 70
     0
102
RTVSPropertyOp53
 70
     1
102
RTVSPropertyOp54
 70
     1
102
RTVSPropertyOp55
 70
     1
102
RTVSPropertyOp56
 70
     1
102
RTVSPropertyOp57
 70
     1
102
RTVSPropertyOp58
 70
     1
102
RTVSPropertyOp59
 70
     1
102
RTVSPropertyOp60
 70
     1
102
RTVSPropertyOp61
 70
     1
102
RTVSPropertyOp62
 70
     1
  0
XRECORD
  5
20CA1
102
{ACAD_REACTORS
330
20CA0
102
}
330
20CA0
100
AcDbXrecord
280
     1
102
RTVSPost2010Prop28
280
     0
102
RTVSPost2010PropOp28
 70
     1
102
RTVSPost2010Prop29
280
     1
102
RTVSPost2010PropOp29
 70
     1
102
RTVSPost2010Prop30
280
     1
102
RTVSPost2010PropOp30
 70
     1
102
RTVSPost2010Prop31
280
     0
102
RTVSPost2010PropOp31
 70
     1
102
RTVSPost2010Prop32
280
     0
102
RTVSPost2010PropOp32
 70
     1
102
RTVSPost2010Prop33
280
     0
102
RTVSPost2010PropOp33
 70
     1
102
RTVSPost2010Prop34
280
     0
102
RTVSPost2010PropOp34
 70
     1
102
RTVSPost2010Prop35
280
     0
102
RTVSPost2010PropOp35
 70
     1
102
RTVSPost2010Prop36
280
     0
102
RTVSPost2010PropOp36
 70
     1
102
RTVSPost2010Prop37
 90
       50
102
RTVSPost2010PropOp37
 70
     1
102
RTVSPost2010Prop38
140
0.0
102
RTVSPost2010PropOp38
 70
     1
102
RTVSPost2010Prop39
140
1.0
102
RTVSPost2010PropOp39
 70
     1
102
RTVSPost2010Prop40
 90
        0
102
RTVSPost2010PropOp40
 70
     1
102
RTVSPost2010Prop41ColorIndex
 90
       18
102
RTVSPost2010Prop41ColorRGB
 90
        0
102
RTVSPost2010PropOp41
 70
     1
102
RTVSPost2010Prop42
 90
       50
102
RTVSPost2010PropOp42
 70
     1
102
RTVSPost2010Prop43
 90
        3
102
RTVSPost2010PropOp43
 70
     1
102
RTVSPost2010Prop44ColorIndex
 90
        5
102
RTVSPost2010Prop44ColorRGB
 90
      255
102
RTVSPost2010PropOp44
 70
     1
102
RTVSPost2010Prop45
280
     0
102
RTVSPost2010PropOp45
 70
     1
102
RTVSPost2010Prop46
 90
       50
102
RTVSPost2010PropOp46
 70
     1
102
RTVSPost2010Prop47
 90
       50
102
RTVSPost2010PropOp47
 70
     1
102
RTVSPost2010Prop48
 90
       50
102
RTVSPost2010PropOp48
 70
     1
102
RTVSPost2010Prop49
280
     0
102
RTVSPost2010PropOp49
 70
     1
102
RTVSPost2010Prop50
 90
       50
102
RTVSPost2010PropOp50
 70
     1
102
RTVSPost2010Prop51ColorIndex
 90
      256
102
RTVSPost2010Prop51ColorRGB
 90
-16777216
102
RTVSPost2010PropOp51
 70
     0
102
RTVSPost2010Prop52
140
1.0
102
RTVSPost2010PropOp52
 70
     0
102
RTVSPost2010Prop53
 90
        2
102
RTVSPost2010PropOp53
 70
     1
102
RTVSPost2010Prop54
  1
strokes_ogs.tif
102
RTVSPost2010PropOp54
 70
     1
102
RTVSPost2010Prop55
280
     0
102
RTVSPost2010PropOp55
 70
     1
102
RTVSPost2010Prop56
140
1.0
102
RTVSPost2010PropOp56
 70
     1
102
RTVSPost2010Prop57
140
1.0
102
RTVSPost2010PropOp57
 70
     1
102
RTVSPropertyOp0
 70
     1
102
RTVSPropertyOp1
 70
     1
102
RTVSPropertyOp2
 70
     1
102
RTVSPropertyOp3
 70
     1
102
RTVSPropertyOp4
 70
     1
102
RTVSPropertyOp5
 70
     1
102
RTVSPropertyOp6
 70
     1
102
RTVSPropertyOp7
 70
     1
102
RTVSPropertyOp8
 70
     1
102
RTVSPropertyOp9
 70
     1
102
RTVSPropertyOp10
 70
     1
102
RTVSPropertyOp11
 70
     1
102
RTVSPropertyOp12
 70
     1
102
RTVSPropertyOp13
 70
     1
102
RTVSPropertyOp14
 70
     1
102
RTVSPropertyOp15
 70
     1
102
RTVSPropertyOp16
 70
     1
102
RTVSPropertyOp17
 70
     1
102
RTVSPropertyOp18
 70
     1
102
RTVSPropertyOp19
 70
     1
102
RTVSPropertyOp20
 70
     1
102
RTVSPropertyOp21
 70
     1
102
RTVSPropertyOp22
 70
     1
102
RTVSPropertyOp23
 70
     1
102
RTVSPropertyOp24
 70
     1
102
RTVSPropertyOp25
 70
     1
102
RTVSPropertyOp26
 70
     1
102
RTVSPropertyOp27
 70
     1
102
RTVSPropertyOp28
 70
     1
102
RTVSPropertyOp29
 70
     1
102
RTVSPropertyOp30
 70
     1
102
RTVSPropertyOp31
 70
     1
102
RTVSPropertyOp32
 70
     1
102
RTVSPropertyOp33
 70
     1
102
RTVSPropertyOp34
 70
     1
102
RTVSPropertyOp35
 70
     1
102
RTVSPropertyOp36
 70
     1
102
RTVSPropertyOp37
 70
     1
102
RTVSPropertyOp38
 70
     1
102
RTVSPropertyOp39
 70
     1
102
RTVSPropertyOp40
 70
     1
102
RTVSPropertyOp41
 70
     1
102
RTVSPropertyOp42
 70
     1
102
RTVSPropertyOp43
 70
     1
102
RTVSPropertyOp44
 70
     1
102
RTVSPropertyOp45
 70
     1
102
RTVSPropertyOp46
 70
     1
102
RTVSPropertyOp47
 70
     1
102
RTVSPropertyOp48
 70
     1
102
RTVSPropertyOp49
 70
     1
102
RTVSPropertyOp50
 70
     1
102
RTVSPropertyOp51
 70
     0
102
RTVSPropertyOp52
 70
     0
102
RTVSPropertyOp53
 70
     1
102
RTVSPropertyOp54
 70
     1
102
RTVSPropertyOp55
 70
     1
102
RTVSPropertyOp56
 70
     1
102
RTVSPropertyOp57
 70
     1
102
RTVSPropertyOp58
 70
     1
102
RTVSPropertyOp59
 70
     1
102
RTVSPropertyOp60
 70
     1
102
RTVSPropertyOp61
 70
     1
102
RTVSPropertyOp62
 70
     1
  0
XRECORD
  5
20CB8
102
{ACAD_REACTORS
330
20CB7
102
}
330
20CB7
100
AcDbXrecord
280
     1
102
RTVSPost2010Prop28
280
     0
102
RTVSPost2010PropOp28
 70
     1
102
RTVSPost2010Prop29
280
     1
102
RTVSPost2010PropOp29
 70
     1
102
RTVSPost2010Prop30
280
     1
102
RTVSPost2010PropOp30
 70
     1
102
RTVSPost2010Prop31
280
     0
102
RTVSPost2010PropOp31
 70
     1
102
RTVSPost2010Prop32
280
     0
102
RTVSPost2010PropOp32
 70
     1
102
RTVSPost2010Prop33
280
     0
102
RTVSPost2010PropOp33
 70
     1
102
RTVSPost2010Prop34
280
     0
102
RTVSPost2010PropOp34
 70
     1
102
RTVSPost2010Prop35
280
     0
102
RTVSPost2010PropOp35
 70
     1
102
RTVSPost2010Prop36
280
     0
102
RTVSPost2010PropOp36
 70
     1
102
RTVSPost2010Prop37
 90
       50
102
RTVSPost2010PropOp37
 70
     1
102
RTVSPost2010Prop38
140
0.0
102
RTVSPost2010PropOp38
 70
     1
102
RTVSPost2010Prop39
140
1.0
102
RTVSPost2010PropOp39
 70
     1
102
RTVSPost2010Prop40
 90
        0
102
RTVSPost2010PropOp40
 70
     1
102
RTVSPost2010Prop41ColorIndex
 90
       18
102
RTVSPost2010Prop41ColorRGB
 90
        0
102
RTVSPost2010PropOp41
 70
     1
102
RTVSPost2010Prop42
 90
       50
102
RTVSPost2010PropOp42
 70
     1
102
RTVSPost2010Prop43
 90
        3
102
RTVSPost2010PropOp43
 70
     1
102
RTVSPost2010Prop44ColorIndex
 90
        5
102
RTVSPost2010Prop44ColorRGB
 90
      255
102
RTVSPost2010PropOp44
 70
     1
102
RTVSPost2010Prop45
280
     0
102
RTVSPost2010PropOp45
 70
     1
102
RTVSPost2010Prop46
 90
       50
102
RTVSPost2010PropOp46
 70
     1
102
RTVSPost2010Prop47
 90
       50
102
RTVSPost2010PropOp47
 70
     1
102
RTVSPost2010Prop48
 90
       50
102
RTVSPost2010PropOp48
 70
     1
102
RTVSPost2010Prop49
280
     0
102
RTVSPost2010PropOp49
 70
     1
102
RTVSPost2010Prop50
 90
       50
102
RTVSPost2010PropOp50
 70
     1
102
RTVSPost2010Prop51ColorIndex
 90
      256
102
RTVSPost2010Prop51ColorRGB
 90
-16777216
102
RTVSPost2010PropOp51
 70
     0
102
RTVSPost2010Prop52
140
1.0
102
RTVSPost2010PropOp52
 70
     0
102
RTVSPost2010Prop53
 90
        2
102
RTVSPost2010PropOp53
 70
     1
102
RTVSPost2010Prop54
  1
strokes_ogs.tif
102
RTVSPost2010PropOp54
 70
     1
102
RTVSPost2010Prop55
280
     0
102
RTVSPost2010PropOp55
 70
     1
102
RTVSPost2010Prop56
140
1.0
102
RTVSPost2010PropOp56
 70
     1
102
RTVSPost2010Prop57
140
1.0
102
RTVSPost2010PropOp57
 70
     1
102
RTVSPropertyOp0
 70
     1
102
RTVSPropertyOp1
 70
     1
102
RTVSPropertyOp2
 70
     1
102
RTVSPropertyOp3
 70
     1
102
RTVSPropertyOp4
 70
     1
102
RTVSPropertyOp5
 70
     1
102
RTVSPropertyOp6
 70
     1
102
RTVSPropertyOp7
 70
     1
102
RTVSPropertyOp8
 70
     1
102
RTVSPropertyOp9
 70
     1
102
RTVSPropertyOp10
 70
     1
102
RTVSPropertyOp11
 70
     1
102
RTVSPropertyOp12
 70
     1
102
RTVSPropertyOp13
 70
     1
102
RTVSPropertyOp14
 70
     1
102
RTVSPropertyOp15
 70
     1
102
RTVSPropertyOp16
 70
     1
102
RTVSPropertyOp17
 70
     1
102
RTVSPropertyOp18
 70
     1
102
RTVSPropertyOp19
 70
     1
102
RTVSPropertyOp20
 70
     1
102
RTVSPropertyOp21
 70
     1
102
RTVSPropertyOp22
 70
     1
102
RTVSPropertyOp23
 70
     1
102
RTVSPropertyOp24
 70
     1
102
RTVSPropertyOp25
 70
     1
102
RTVSPropertyOp26
 70
     1
102
RTVSPropertyOp27
 70
     1
102
RTVSPropertyOp28
 70
     1
102
RTVSPropertyOp29
 70
     1
102
RTVSPropertyOp30
 70
     1
102
RTVSPropertyOp31
 70
     1
102
RTVSPropertyOp32
 70
     1
102
RTVSPropertyOp33
 70
     1
102
RTVSPropertyOp34
 70
     1
102
RTVSPropertyOp35
 70
     1
102
RTVSPropertyOp36
 70
     1
102
RTVSPropertyOp37
 70
     1
102
RTVSPropertyOp38
 70
     1
102
RTVSPropertyOp39
 70
     1
102
RTVSPropertyOp40
 70
     1
102
RTVSPropertyOp41
 70
     1
102
RTVSPropertyOp42
 70
     1
102
RTVSPropertyOp43
 70
     1
102
RTVSPropertyOp44
 70
     1
102
RTVSPropertyOp45
 70
     1
102
RTVSPropertyOp46
 70
     1
102
RTVSPropertyOp47
 70
     1
102
RTVSPropertyOp48
 70
     1
102
RTVSPropertyOp49
 70
     1
102
RTVSPropertyOp50
 70
     1
102
RTVSPropertyOp51
 70
     0
102
RTVSPropertyOp52
 70
     0
102
RTVSPropertyOp53
 70
     1
102
RTVSPropertyOp54
 70
     1
102
RTVSPropertyOp55
 70
     1
102
RTVSPropertyOp56
 70
     1
102
RTVSPropertyOp57
 70
     1
102
RTVSPropertyOp58
 70
     1
102
RTVSPropertyOp59
 70
     1
102
RTVSPropertyOp60
 70
     1
102
RTVSPropertyOp61
 70
     1
102
RTVSPropertyOp62
 70
     1
  0
XRECORD
  5
20CC0
102
{ACAD_REACTORS
330
20CBF
102
}
330
20CBF
100
AcDbXrecord
280
     1
102
RTVSPost2010Prop28
280
     0
102
RTVSPost2010PropOp28
 70
     1
102
RTVSPost2010Prop29
280
     1
102
RTVSPost2010PropOp29
 70
     1
102
RTVSPost2010Prop30
280
     1
102
RTVSPost2010PropOp30
 70
     1
102
RTVSPost2010Prop31
280
     0
102
RTVSPost2010PropOp31
 70
     1
102
RTVSPost2010Prop32
280
     0
102
RTVSPost2010PropOp32
 70
     1
102
RTVSPost2010Prop33
280
     0
102
RTVSPost2010PropOp33
 70
     1
102
RTVSPost2010Prop34
280
     0
102
RTVSPost2010PropOp34
 70
     1
102
RTVSPost2010Prop35
280
     0
102
RTVSPost2010PropOp35
 70
     1
102
RTVSPost2010Prop36
280
     0
102
RTVSPost2010PropOp36
 70
     1
102
RTVSPost2010Prop37
 90
       50
102
RTVSPost2010PropOp37
 70
     1
102
RTVSPost2010Prop38
140
0.0
102
RTVSPost2010PropOp38
 70
     1
102
RTVSPost2010Prop39
140
1.0
102
RTVSPost2010PropOp39
 70
     1
102
RTVSPost2010Prop40
 90
        0
102
RTVSPost2010PropOp40
 70
     1
102
RTVSPost2010Prop41ColorIndex
 90
       18
102
RTVSPost2010Prop41ColorRGB
 90
        0
102
RTVSPost2010PropOp41
 70
     1
102
RTVSPost2010Prop42
 90
       50
102
RTVSPost2010PropOp42
 70
     1
102
RTVSPost2010Prop43
 90
        3
102
RTVSPost2010PropOp43
 70
     1
102
RTVSPost2010Prop44ColorIndex
 90
        5
102
RTVSPost2010Prop44ColorRGB
 90
      255
102
RTVSPost2010PropOp44
 70
     1
102
RTVSPost2010Prop45
280
     0
102
RTVSPost2010PropOp45
 70
     1
102
RTVSPost2010Prop46
 90
       50
102
RTVSPost2010PropOp46
 70
     1
102
RTVSPost2010Prop47
 90
       50
102
RTVSPost2010PropOp47
 70
     1
102
RTVSPost2010Prop48
 90
       50
102
RTVSPost2010PropOp48
 70
     1
102
RTVSPost2010Prop49
280
     0
102
RTVSPost2010PropOp49
 70
     1
102
RTVSPost2010Prop50
 90
       50
102
RTVSPost2010PropOp50
 70
     1
102
RTVSPost2010Prop51ColorIndex
 90
      256
102
RTVSPost2010Prop51ColorRGB
 90
-16777216
102
RTVSPost2010PropOp51
 70
     0
102
RTVSPost2010Prop52
140
1.0
102
RTVSPost2010PropOp52
 70
     0
102
RTVSPost2010Prop53
 90
        2
102
RTVSPost2010PropOp53
 70
     1
102
RTVSPost2010Prop54
  1
strokes_ogs.tif
102
RTVSPost2010PropOp54
 70
     1
102
RTVSPost2010Prop55
280
     0
102
RTVSPost2010PropOp55
 70
     1
102
RTVSPost2010Prop56
140
1.0
102
RTVSPost2010PropOp56
 70
     1
102
RTVSPost2010Prop57
140
1.0
102
RTVSPost2010PropOp57
 70
     1
102
RTVSPropertyOp0
 70
     1
102
RTVSPropertyOp1
 70
     1
102
RTVSPropertyOp2
 70
     1
102
RTVSPropertyOp3
 70
     1
102
RTVSPropertyOp4
 70
     1
102
RTVSPropertyOp5
 70
     1
102
RTVSPropertyOp6
 70
     1
102
RTVSPropertyOp7
 70
     1
102
RTVSPropertyOp8
 70
     1
102
RTVSPropertyOp9
 70
     1
102
RTVSPropertyOp10
 70
     1
102
RTVSPropertyOp11
 70
     1
102
RTVSPropertyOp12
 70
     1
102
RTVSPropertyOp13
 70
     1
102
RTVSPropertyOp14
 70
     1
102
RTVSPropertyOp15
 70
     1
102
RTVSPropertyOp16
 70
     1
102
RTVSPropertyOp17
 70
     1
102
RTVSPropertyOp18
 70
     1
102
RTVSPropertyOp19
 70
     1
102
RTVSPropertyOp20
 70
     1
102
RTVSPropertyOp21
 70
     1
102
RTVSPropertyOp22
 70
     1
102
RTVSPropertyOp23
 70
     1
102
RTVSPropertyOp24
 70
     1
102
RTVSPropertyOp25
 70
     1
102
RTVSPropertyOp26
 70
     1
102
RTVSPropertyOp27
 70
     1
102
RTVSPropertyOp28
 70
     1
102
RTVSPropertyOp29
 70
     1
102
RTVSPropertyOp30
 70
     1
102
RTVSPropertyOp31
 70
     1
102
RTVSPropertyOp32
 70
     1
102
RTVSPropertyOp33
 70
     1
102
RTVSPropertyOp34
 70
     1
102
RTVSPropertyOp35
 70
     1
102
RTVSPropertyOp36
 70
     1
102
RTVSPropertyOp37
 70
     1
102
RTVSPropertyOp38
 70
     1
102
RTVSPropertyOp39
 70
     1
102
RTVSPropertyOp40
 70
     1
102
RTVSPropertyOp41
 70
     1
102
RTVSPropertyOp42
 70
     1
102
RTVSPropertyOp43
 70
     1
102
RTVSPropertyOp44
 70
     1
102
RTVSPropertyOp45
 70
     1
102
RTVSPropertyOp46
 70
     1
102
RTVSPropertyOp47
 70
     1
102
RTVSPropertyOp48
 70
     1
102
RTVSPropertyOp49
 70
     1
102
RTVSPropertyOp50
 70
     1
102
RTVSPropertyOp51
 70
     0
102
RTVSPropertyOp52
 70
     0
102
RTVSPropertyOp53
 70
     1
102
RTVSPropertyOp54
 70
     1
102
RTVSPropertyOp55
 70
     1
102
RTVSPropertyOp56
 70
     1
102
RTVSPropertyOp57
 70
     1
102
RTVSPropertyOp58
 70
     1
102
RTVSPropertyOp59
 70
     1
102
RTVSPropertyOp60
 70
     1
102
RTVSPropertyOp61
 70
     1
102
RTVSPropertyOp62
 70
     1
  0
ENDSEC
  0
EOF
